Gitaristu.ru
Аккорды Табулатура Начинающим Мастер-класс Софт Видео
Новости Анонсы Гитары Гитаристы Статьи Аватарки Минусовки
Поиск



Популярные подборы




Настройка гитары






Главная > Аккорды > S > Siakol

Аккорды
Siakol
-
Teka Lang bass (табулатура)

Не нашли аккорды к песне? Посмотрите на


Подбор прислал: gitaristu.ru
etoh try ko lng toh nakita ko lang.....

kapa mula sa puso lang toh...

tabbed by: Elli // Flong

intro.. (solo muna guitar tapos biglang pasok yan)
                          (4x)
e|---------------|      |-------------------------------|
a|---------------|      |-------------------------------|
d|---------------|      |-------------------------------|
g|--33--33--33---|      |--55--55--55--33--33--33-------|
    ss  ss  ss             ss  ss  ss  ss  ss  ss
 
verse 1
(2x)
e|-----------------------------------------------|
a|-----------------------------------------------|
d|--5-5-5/7--------------------------------------|
g|---------5-5-5/77--7--7\33--3------------------|

pre-chor
 (4x)
e|-----------------------------------------------|
a|-----------------------------------------------|
d|------------------5/7~----------------5/7~-----|
g|--5-5-5-5-3-3-3-3-----5-5-5-5-3-3-3-3----------|

chor
 (2x)
e|-----------------------------------------------|
a|-----------------------------------------------|
d|---5~-5~---------------------------------------|
g|---------5~-5~-5/7~--7~-7\3~-3~----------------|


e|-----------------------------------------------|
a|-----------------------------------------------|
d|-----------------------------------------------|
g|-55--55--55--33--33--33--55--55--55--33--33--33|
   ss  ss  ss  ss  ss  ss  ss  ss  ss  ss  ss  ss

verse 1
pre-chor

chor2
  (2x)
e|----------------------------------------------|
a|---------6h7-6---------------------3h4-3------|
d|--5-5-5h7-------------6h7-6-2-2-2h4-----------|
g|---------------5-5-5h7------------------3-3-3-|


e|-----------------------------------------------|
a|-----------------------------------------------|
d|-----------------------------------------------|
g|-55--55--55--33--33--33--55--55--55--33--33--33|
   ss  ss  ss  ss  ss  ss  ss  ss  ss  ss  ss  ss

pre-chor
chor2

 (ito na last hanggang matapos na yan bahal na kayo.)
e|-----------------------------------------------|
a|-----------------------------------------------|
d|-----------------------------------------------|
g|-55--55--55--33--33--33--55--55--55--33--33--33|
   ss  ss  ss  ss  ss  ss  ss  ss  ss  ss  ss  ss


Legend
s-slap
/-slide up
\-slide down
h-hammer

paki rate.. medyo katunog nmn ata diba??...

Другие подборы этого исполнителя

Расскажи друзьям!




Привет, гитарист!

Пройди супер-курс по гитаре и порази всех своей игрой!

Забрать курс!
ВАМ ПОДАРКИ ОТ ПРОЕКТА
"ГИТАРНАЯ РЕВОЛЮЦИЯ"