Gitaristu.ru
Аккорды Табулатура Начинающим Мастер-класс Софт Видео
Новости Анонсы Гитары Гитаристы Статьи Аватарки Минусовки
Поиск



Популярные подборы




Настройка гитары






Главная > Аккорды > S > Siakol

Аккорды
Siakol
-
Wag Mong Isipin Yon (табулатура)

Не нашли аккорды к песне? Посмотрите на


Подбор прислал: gitaristu.ru
Solo:
 
e--------------------------------------11/12-11-----------------------|
B----------5-4----10-9-9/10-9/7-7-7~/-----------12-10-9-10-9----------|
G--------------4---------------------------------------------11-9-9~/-|
D-5/7-6---------------------------------------------------------------|
A-------7-------------------------------------------------------------|
E----------------------------------------------------------------------
 
 
e-----------------------17-16-----------------------------------------|
B------------9h10-9-----------17-16-----------------------------------|
G------9h11---------11--------------13/14-13----------------8/9-9-9-9-|
D-9h11---------------------------------------6/7-6------7h9-----------|
A---------------------------------------------------7h9---------------|
E---------------------------------------------------------------------
 
 
e------------------------------------------------------------------|
B-10h9---------10h9------------------------------9h10-9-10/12-12---|
G------11-9-9-------11-9-9-8h9-8------8h9-8h9-11-------------------|
D--------------------------------9h11------------------------------|
A------------------------------------------------------------------|
E-------------------------------------------------------------------
 
 
e-------------   
B-------------    
G------9h11-11 (2x)
D-9h11--------    
A-------------    
E-------------    
 
e-------------   
B-------------    
G------9h11-9-
 (2x)
D-9h11--------    
A-------------    
E-------------    
 
e------------------------|
B-----------9h10-9-------|
G------9h11--------------|
D-9h11-------------------|
A------------------------|
E-------------------------
 
e-------------   
B-------------    
G------9h11-11 (2x)
D-9h11--------    
A-------------    
E-------------
 
e----------------------------------------17-16--------------------|
B------------------------9h10----9h10-12-------17-16--17-16-------|
G------9h11------9h11-11------11----------------------------16~/--|
D-9h11------9h11--------------------------------------------------|
A-----------------------------------------------------------------|
E------------------------------------------------------------------  






sa mga comment e-mail me ha @ Japongs_09@yahoo.com
sa mga frends koh 
JM,REX,RONNEL,ALFREDO BAND MATE KOH TO
SANA MAGUSTUHAN NYO TO HA

Другие подборы этого исполнителя

Расскажи друзьям!




Привет, гитарист!

Пройди супер-курс по гитаре и порази всех своей игрой!

Забрать курс!
ВАМ ПОДАРКИ ОТ ПРОЕКТА
"ГИТАРНАЯ РЕВОЛЮЦИЯ"