Gitaristu.ru
Аккорды Табулатура Начинающим Мастер-класс Софт Видео
Новости Анонсы Гитары Гитаристы Статьи Аватарки Минусовки
Поиск



Популярные подборы




Настройка гитары






Главная > Аккорды > S > Sie7e

Аккорды
Sie7e
-
Tengo Tu Love (табулатура)

Не нашли аккорды к песне? Посмотрите на


Подбор прислал: gitaristu.ru
Tengo Tu Love
Sie7e
Key: G

Tabbed+Chorded by weksa
Contact: weksa@live.com
Based on this live performance: http://www.youtube.com/watch?v=t0TdylgSr6A
Tutorial: http://www.youtube.com/watch?v=ktTXBapIJfk


Chords for picking:    Barre chords for strumming reggae style:
   G   D  Em7  C       G   D   Em  C
e|-3---2---3---0-------3---5---7---8---------------------------|
B|-3---3---3---3-------3---7---8---8---------------------------|
G|-0---2---0---0-------4---7---9---9---------------------------|
D|-0---0---2---2-------5---7---9---10--------------------------|
A|-2-------2---3-------5---5---7---10--------------------------|
E|-3-------0-----------3-----------8---------------------------|

Chords for coda:
   G   D   Em C/G
e|-3---2---0---0-------------------------------------------------|
B|-3---3---0---1-------------------------------------------------|
G|-0---2---0---0-------------------------------------------------|
D|-0---0---2---2-------------------------------------------------|
A|-2-------2---3-------------------------------------------------|
E|-3-------0---3-------------------------------------------------|


Intro:

e|-0h3p0-------------------------------------------------------|
B|------0h3p0--------------------------------------------------|
G|-----------0h2p0---------------------------------------------|
D|----------------0h2p0----------------------------------------|
A|-------------------------------------------------------------|
E|-------------------------------------------------------------|

   G                D
e|-----x----------------x--------------------------------------|
B|---3-x-3---3----0---3-x-3---3----0---------------------------|
G|---0-x-0---0-0h2-0--2-x-2---2-0h2-0--------------------------|
D|-----x------------0---x---0----------------------------------|
A|-----x----------------x--------------------------------------|
E|-3---x---3------------x--------------------------------------|

   Em7              C
e|-----x----------------x-----0-x------------------------------|
B|---3-x-3---3----0---3-x-3---3-x-3----------------------------|
G|---0-x-0---0-0h2-0--0-x-0---0-x-0----------------------------|
D|-----x----------------x-------x------------------------------|
A|-----x------------3---x---3---x------------------------------|
E|-0---x---0------------x-------x------------------------------|


Verse:
   G                D
e|-----x-------x--------x-------x------------------------------|
B|---3-x-3---3-x-3----3-x-3---3-x-3----------------------------|
G|---0-x-0---0-x-0----2-x-2---2-x-2----------------------------|
D|-----x-------x----0---x---0---x------------------------------|
A|-----x-------x--------x-------x------------------------------|
E|-3---x---3---x--------x-------x------------------------------|

   Em               C
e|-----x-------x--------x-------x------------------------------|
B|---3-x-3---3-x-3----3-x-3---3-x-3----------------------------|
G|---0-x-0---0-x-0----0-x-0---0-x-0----------------------------|
D|-----x-------x--------x---0---x------------------------------|
A|-----x-------x----3---x-------x------------------------------|
E|-0---x---0---x--------x-------x------------------------------|

h  hammer-on
p  pull-off

-- Verse 1: (pick) --

No tengo un celular con diamantes
De muchos kilates pa' impresionar
Pero tengo una buena conversaci
Расскажи друзьям!




Привет, гитарист!

Пройди супер-курс по гитаре и порази всех своей игрой!

Забрать курс!
ВАМ ПОДАРКИ ОТ ПРОЕКТА
"ГИТАРНАЯ РЕВОЛЮЦИЯ"