Gitaristu.ru
Аккорды Табулатура Начинающим Мастер-класс Софт Видео
Новости Анонсы Гитары Гитаристы Статьи Аватарки Минусовки
Поиск



Популярные подборы




Настройка гитары






Главная > Аккорды > S > Signs Of Betrayal

Аккорды
Signs Of Betrayal
-
Catatonic (табулатура)

Не нашли аккорды к песне? Посмотрите на


Подбор прислал: gitaristu.ru
This is my first tab so please be generous and leave some tips for me. I've been playing 
for two years but im a drummer more than a guitarist. An awesome song from a very 
band that has amazing potential like many from Phoenix.


Since im not familiar with the tuning on a guitar that well i recommend a low tuning of 
drop C or B. If someone could put there input in that would be great.

*=palm mute
/=slide up
\=slide down

Intro 1x
e|---------------------------------------------------------------------------|
B|---------------------------------------------------------------------------|
G|---------------10-10-10-/-9-9-9----------------7-7-7-\-8-8-8---------------|
D|--8-8--88--8-8--x- x--x---x-x-x--5-5--55--5-5--x-x-x---x-x-x--1-1--11--1-1-|
A|--8-8--88--8-8--8- 8--8-/-7-7-7--5-5--55--5-5--5-5-5-\-6-6-6--1-1--11--1-1-|
E|--8-8--88--8-8-------------------5-5--55--5-5-----------------1-1--11--1-1-|

e|---------------------------------------------------------------------------|
B|---------------------------------------------------------------------------|
G|-3-3-3-/-2-2-2-------------------------------------------------------------|
D|-x-x-x---x-x-x--3-3--33--3-3--111/000--ring--------------------------------|
A|-1-1-1-/-0-0-0--3-3--33--3-3--111/000--ring--------------------------------|
E|----------------3-3--33--3-3--111/000--ring--------------------------------|

During the verse there is just digital effects and bass playing

Pre-Chorus 3x
e|---------------------------------------------------------------------------|
B|---------------------------------------------------------------------------|
G|---------------------------------------------------------------------------|
D|-0-0-00-0-0-000000-0-0-00-0-0----------------------------------------------|
A|-0-0-00-0-0-000000-0-0-00-0-0----------------------------------------------|
E|-0-0-00-0-0-000000-0-0-00-0-0----------------------------------------------|
              ******

Chorus 2x

e|---------------------------------------------------------------------------|
B|---------------------------------------------------------------------------|
G|---------------10-10-10-/-9-9-9----------------7-7-7-\-8-8-8---------------|
D|--8-8--88--8-8--x- x--x---x-x-x--5-5--55--5-5--x-x-x---x-x-x--1-1--11--1-1-|
A|--8-8--88--8-8--8- 8--8-/-7-7-7--5-5--55--5-5--5-5-5-\-6-6-6--1-1--11--1-1-|
E|--8-8--88--8-8-------------------5-5--55--5-5-----------------1-1--11--1-1-|

e|------------------------------------------------------------------------------|
B|------------------------------------------------------------------------------|
G|-3-3-3-/-2-2-2----------------------------------------------------------------|
D|-x-x-x---x-x-x--3-3--33--3-3--111/000-----------------------------------------|
A|-1-1-1-/-0-0-0--3-3--33--3-3--111/000-----------------------------------------|
E|----------------3-3--33--3-3--111/000-----------------------------------------|

thats all for now the breakdown after the second chorus is tough for me right now to 
out where hes playing on the fret board, but soon it will all come together.

Final order

Intro 1x
Verse -no guitar
Pre-Chorus 3x
Chorus 2x
Verse
Pre-Chorus 3x
Chorus 2x
Breakdown- n/a
Chorus 2x
After Last Chorus it goes like this: (also give more of a pause between the 8s , 5s, 1s, 
3s in the song u can hear it)

e|---------------------------------------------------------------------------|
B|---------------------------------------------------------------------------|
G|---------------------------------------------------------------------------|
D|-8-8--88--8-8--5-5--55--5-5--1-1--11--1-1--3-3--33--3-3---------0-ring-----|
A|-8-8--88--8-8--5-5--55--5-5--1-1--11--1-1--3-3--33--3-3---------0-ring-----|
E|-8-8--88--8-8--5-5--55--5-5--1-1--11--1-1--3-3--33--3-3
Расскажи друзьям!




Привет, гитарист!

Пройди супер-курс по гитаре и порази всех своей игрой!

Забрать курс!
ВАМ ПОДАРКИ ОТ ПРОЕКТА
"ГИТАРНАЯ РЕВОЛЮЦИЯ"