Gitaristu.ru
Аккорды Табулатура Начинающим Мастер-класс Софт Видео
Новости Анонсы Гитары Гитаристы Статьи Аватарки Минусовки
Поиск



Популярные подборы




Настройка гитары






Главная > Аккорды > S > Sigur Ros

Аккорды
Sigur Ros
-
Gobbledigook bass (табулатура)

Не нашли аккорды к песне? Посмотрите на


Подбор прислал: gitaristu.ru
In the intro there is no bass line.

Verse
G|----------------------------------|
D|----------------------------------|
A|----------------------------------|
E|--10--9--10--5--10--9--10--7--9---|

Bridge
G|--------------|
D|--------------|
A|--------------|
E|---5~---7~----|

Chorus
G|-------------------------------------|
D|-------------------------------------|
A|-------------------------------------|x3
E|--3-3-3-3-3-3-3-3-----2-2-2--5--7-2--|

G|-------------------------------------|
D|-------------------------------------|
A|-------------------------------------|
E|--3-3-3-3-3-3-3-3-----2-2---5~-------|

Outro
G|---------------------------|
D|---------------------------|
A|---------------------------|
E|--3--5--7--2--3--5--2------|

Другие подборы этого исполнителя

Расскажи друзьям!




Привет, гитарист!

Пройди супер-курс по гитаре и порази всех своей игрой!

Забрать курс!
ВАМ ПОДАРКИ ОТ ПРОЕКТА
"ГИТАРНАЯ РЕВОЛЮЦИЯ"