Gitaristu.ru
Аккорды Табулатура Начинающим Мастер-класс Софт Видео
Новости Анонсы Гитары Гитаристы Статьи Аватарки Минусовки
Поиск



Популярные подборы




Настройка гитары






Главная > Аккорды > S > Sigur Ros

Аккорды
Sigur Ros
-
Heysatan bass (табулатура)

Не нашли аккорды к песне? Посмотрите на


Подбор прислал: gitaristu.ru
Sigur Ros
Haysatan

Tuning: Standard



(0:00) Riff #1 (keep playing it round in circles regardless of the timing)

G|-----------|
D|-----------|
A|---3-2-7-5-|
E|-3---------|

(1:15) Riff #1.1

G|-------------|
D|-------------|
A|-7-5---3-2-5-|
E|-----3-------|

(2:37) Riff #2

G|---------------------------------------|
D|---------------------------------------|
A|-10-12-7-2-3-2-3---------2-3-2-3---2---|
E|-----------------2-3-2-0---------2---0-|

(3:31) Riff #1.1

G|-------------|
D|-------------|
A|-7-5---3-2-5-|
E|-----3-------|

Другие подборы этого исполнителя

Расскажи друзьям!




Привет, гитарист!

Пройди супер-курс по гитаре и порази всех своей игрой!

Забрать курс!
ВАМ ПОДАРКИ ОТ ПРОЕКТА
"ГИТАРНАЯ РЕВОЛЮЦИЯ"