Gitaristu.ru
Аккорды Табулатура Начинающим Мастер-класс Софт Видео
Новости Анонсы Гитары Гитаристы Статьи Аватарки Минусовки
Поиск



Популярные подборы




Настройка гитары






Главная > Аккорды > S > Sigur Ros

Аккорды
Sigur Ros
-
Hoppipolla (табулатура)

Не нашли аккорды к песне? Посмотрите на


Подбор прислал: gitaristu.ru
SIGUR ROS - HOPPIPOLLA

by: firefox04

INTRO:

|---------9---------9----------9----------9-|
|------12--------12---------12---------12---|
|---11--------11---------11---------11------|
|-9---------9---------11---------11---------|
|-------------------------------------------|
|-------------------------------------------|
 |          |         |          |


  /   Part 1
 /
 | |-------------|----------11-|----------11----12-11-------|-----|
 | |-------12-14-|-------12----|-------12----12-------12----|-----|
 | |----11-------|----11-------|----11-------------------11-|--%--|
 | |-13----------|-14----------|-14-------------------------|--%--|
 | |-------------|-------------|----------------------------|-----|
 | |-------------|-------------|----------------------------|-----|
 |
 | |-------------|-------------|----------11----12-11-------|-------------|
 | |-------12-14-|-------12-14-|-------12----12-------12----|-------12-14-|
 | |----11-------|----11-------|----11-------------------11-|----11-------|
 | |-13----------|-14----------|-14-------------------------|-14----------|
 | |-------------|-------------|----------------------------|-------------|
 | |-------------|-------------|----------------------------|-------------|
 \
  \

Part 1 + drum

|------------------|
|-12--12--9--7--5--|
|-11--11--8--6--4--|
|-9---9---6--4--2--|
|------------------|
|------------------|

Другие подборы этого исполнителя

Расскажи друзьям!




Привет, гитарист!

Пройди супер-курс по гитаре и порази всех своей игрой!

Забрать курс!
ВАМ ПОДАРКИ ОТ ПРОЕКТА
"ГИТАРНАЯ РЕВОЛЮЦИЯ"