Gitaristu.ru
Аккорды Табулатура Начинающим Мастер-класс Софт Видео
Новости Анонсы Гитары Гитаристы Статьи Аватарки Минусовки
Поиск



Популярные подборы




Настройка гитары






Главная > Аккорды > S > Sigur Ros

Аккорды
Sigur Ros
-
Hoppipolla bass (табулатура)

Не нашли аккорды к песне? Посмотрите на


Подбор прислал: gitaristu.ru
   [verse] check song for the rythm

G|----------------------------------------------------------------------------|
D|-1-1-1-1-2-2-2-2/1--------------------------------4-4-4-4-4-4-4-4-4-2-2-2-2-|
A|------------------2-2-2-2-2-2-2-2-------------------------------------------|
E|----------------------------------4-4-4-4-4-4-4-4---------------------------|


    [bridge] 

G|--------------------------------------------------------|
D|--------------------------------------------------------|
A|-6-------4-------2-------4----6-------4-------2-------4-|
E|--------------------------------------------------------|

Другие подборы этого исполнителя

Расскажи друзьям!




Привет, гитарист!

Пройди супер-курс по гитаре и порази всех своей игрой!

Забрать курс!
ВАМ ПОДАРКИ ОТ ПРОЕКТА
"ГИТАРНАЯ РЕВОЛЮЦИЯ"