Gitaristu.ru
Аккорды Табулатура Начинающим Мастер-класс Софт Видео
Новости Анонсы Гитары Гитаристы Статьи Аватарки Минусовки
Поиск



Популярные подборы




Настройка гитары






Главная > Аккорды > S > Sigur Ros

Аккорды
Sigur Ros
-
Illgresi (табулатура)

Не нашли аккорды к песне? Посмотрите на


Подбор прислал: gitaristu.ru
Notes in ( ) are heard only faintly.

Intro:

e---------------------------------------------------------------------------|
B-----------------------0-------0-------------------------------------------|
G------0-------2----------------------(0)-----0--5-------4--------2-------2-|
D----------------0---0----0---0----0-----0--------0---0---0---0----0---0----|
A------------------0--------0--------0-----0--------0-------0--------0------|
E------0-------2--------3--------------------0--5-------3--------2----------|

e---------------------------------------------------------------------------|
B---------------------------------------------------------------------------|
G------7-------4-------2-------0-------0----------11-------11-------11------|
D--------0---0---0---0---0---0---0---0---(0)----(0)----0---0----0---0-------|
A----------0-------0-------0-------0--------(0)---------0--------0----------|
E------7-------3-------2-------0------------------10------------------------|


Chords:

Em        0(2)(2)000
D/F#     200232
Gadd9  300003
Am11   500505
A11 ?    5007xx
G6   ?    30005x
C+9 ?   80098x
Bm        7007xx
D+9 ?   10 0 0 11 10 x
Em*      12 0 0 0 12 x
Em**    0(2)(2)003

The Rest:

The chords for the rest of the song are played in roughly the same fashion as the intro 
of open 4th and 5th strings).

"

Другие подборы этого исполнителя

Расскажи друзьям!




Привет, гитарист!

Пройди супер-курс по гитаре и порази всех своей игрой!

Забрать курс!
ВАМ ПОДАРКИ ОТ ПРОЕКТА
"ГИТАРНАЯ РЕВОЛЮЦИЯ"