Gitaristu.ru
Аккорды Табулатура Начинающим Мастер-класс Софт Видео
Новости Анонсы Гитары Гитаристы Статьи Аватарки Минусовки
Поиск



Популярные подборы




Настройка гитары






Главная > Аккорды > S > Sikth

Аккорды
Sikth
-
In This Light bass (табулатура)

Не нашли аккорды к песне? Посмотрите на


Подбор прислал: gitaristu.ru
SIKTH - IN THIS LIGHT

Tabbed by: Charlie Sabine
E-mail: charlie_sabine@hotmail.com

Standard 5-string tuning - BEADG


I know Sikth don't play in standard tuning, but if you've got a 5/6 string then you
need to detune. If you've only got a 4 string, then you're gonna have to tune to C. There
a fair few parts/variants of parts to this song, so bear with me whilst learning it...


PART A

-------------------------------------------------------------------------|
------------------------------2-1------------------------------2-1-------|
-----------4---------4-----4----------------4----------4-----4-----------|
-------------------------------------------------------------------------|
--2--2--2----2--2--2-----2---------2--2--2-----2--2--2-----2-------------|


-------------------------------------------------------------------------|
-----------4h6-----------------------------------------------------------|
------------------------7-6-4--------------------------------------------|
--4--4--4------4--4--4--------7------------------------------------------|
-------------------------------------------------------------------------|

PART B(i)

-------------------------------------------------------------------------|
-------------------------------------------------------------------------|
-------------------------------------------------------------------------|
-------------------------------------------------------------------------|
--2-------------------2---2-2--2-2----2---2-2--2-2----2---2-2--2-2-------|

-------------------------------------------------------------------------|
---------4h6-------------------------------------------------------------|
----------------------------4-7-6-4--------------------------------------|
--4---4------4-4----4---4-7---------7---2--------------------------------|
-------------------------------------------------------------------------|

CHORUS(i)

--------------------------------------------------------------------------------------|
--------------------------------------------------------------------------------------|
--------------------------------------------------------------------------------------|
--0----1----------4-------------------------------------------------------------------|
-------------2----------5----5-5--5-5---5----5-5--5-5---5----5-5--5-5----5---5-5--5-5-|

-------------------------------------------------------------------------|
-------------------------------------------------------------------------|
-------------------------------------------------------------------------|
--0----1----------4------------------------------------------------------|
-------------2-----------------------------------------------------------|

PART A

-------------------------------------------------------------------------|
------------------------------2-1------------------------------2-1-------|
-----------4---------4-----4----------------4----------4-----4-----------|
-------------------------------------------------------------------------|
--2--2--2----2--2--2-----2---------2--2--2-----2--2--2-----2-------------|


-------------------------------------------------------------------------|
-----------4h6-----------------------------------------------------------|
------------------------7-6-4--------------------------------------------|
--4--4--4------4--4--4--------7------------------------------------------|
-------------------------------------------------------------------------|

PART B(ii)

-------------------------------------------------------------------------|
-------------------------------------------------------------------------|
---------------------------------------------------------------4---------|
-------------------------------------------------------------------------|
--2---2-2--2-2----2---2-2--2-2----2---2-2--2-2----2---2----2-2----2------|

----------------------------------------------------------------------------------------------|
------------------------------------------------------------4h6-------------------------------|
---------4--------------4---------------4---------------------------------------4-7-6-4-------|
------------------------------------------------------4---4------4-4----4---4-7---------7-----|
--2---2----2-2----2---2----2-2----2---2---2-2-------------------------------------------------|

CHORUS (ii)

--------------------------------------------------------------------------------------|
--------------------------------------------------------------------------------------|
--------------------------------------------------------------------------------------|
--0----1----------4-------------------------------------------------------------------|
-------------2----------5----5-5--5-5---5----5-5--5-5---5----5-5--5-5----5---5-5--5-5-|

-------------------------------------------------------------------------------|
-------------------------------------------------------------------------------|
-------------------------------------------------------------------------------|
--0----1----------4------------------------------------------------------------|
-------------2----------5--5--5--5-5--5--5--5--5-5--5--5--5--5-5--5--5--5--5-5-|

-------------------------------------------------------------------------|
-------------------------------------------------------------------------|
-------------------------------------------------------------------------|
-------------------------------------------------------------------------|
--4--4--4--4-4--7--7--7--7-7---------------------------------------------|

PART C

--------------------------------------------------3----------------------|
--------2-------------2--------------------------------------------------|
--4------------4---------------------------------------------------------|
-------------------------------------------------------------------------|
------------------------------4-----5--7--3------------------------------|

-------------------------------------------------------------------------|
-------------------------------------------------------------------------|
-------------------------------------------------------------------------|
--4---4-4-4-4-4--4-4-4-4-4--4-4-4-4-4--4-4-4-4-0--0-0-0-0-0--0-0---------|
-------------------------------------------------------------------------|

-------------------------------------------------------------------------|
-------------------------------------------------------------------------|
-------------------------------------------------------------------------|
--4---4-4-4-4-4--4-4-4-4-4--4--4--4--4--4--4--4--4--4--4--4--4-----------|
-------------------------------------------------------------------------|

PART D (solo)

-------------------------------------------------------------------------|
-------------------------------------------------------------------------|
-------------------------------------------------------------------------|
---------------------------------------------------4---4-4--4-4----------|
--5---5-5--5-5----5---5-5--5-4----2---2-2--2-2---------------------------|

-------------------------------------------------------------------------|
-------------------------------------------------------------------------|
-------------------------------------------------------------------------|
---------------------------------------------------4---4-4--4-4----------|
--5---5-5--5-5----5---5-5--5-4----2---2-2--2-2---------------------------|

PART E

-----------------------------------------------------------------------------|
-----------------------------------------------------------------------------|
-----------------------------------------------------------------------------|
--0----1----------4----------------------------------------------------------|
-------------2----------5--5--5--5--5--5--5--5--5--5--5--5--2--2--2--2--2--2-|

------------------------------------------------------------------------------|
-----------4h6--6--6----------------------------------------------------------|
------------------------------------------------------------------------------|
--4--4--4-----------------------------------------------2h4-------------------|
-----------------------5--5--5--5--5--5--5--5--5--5--5-------5--5--5--5--5--5-|

------------------------------------------------------------------------------|
------------------------------------------------------------------------------|
------------------------------------------------------------------------------|
--0--1------4------------------------------------2h4--------------------------|
---------2------5--5--5--5--5--5--5--5--5--5--5-------5--5--5--5--5--5--------|

CHORUS(i)

--------------------------------------------------------------------------------------|
--------------------------------------------------------------------------------------|
--------------------------------------------------------------------------------------|
--0----1----------4-------------------------------------------------------------------|
-------------2----------5----5-5--5-5---5----5-5--5-5---5----5-5--5-5----5---5-5--5-5-|

-------------------------------------------------------------------------|
-------------------------------------------------------------------------|
-------------------------------------------------------------------------|
--0----1----------4------------------------------------------------------|
-------------2-----------------------------------------------------------|

PART A

-------------------------------------------------------------------------|
------------------------------2-1------------------------------2-1-------|
-----------4---------4-----4----------------4----------4-----4-----------|
-------------------------------------------------------------------------|
--2--2--2----2--2--2-----2---------2--2--2-----2--2--2-----2-------------|


-------------------------------------------------------------------------|
-----------4h6-----------------------------------------------------------|
------------------------7-6-4--------------------------------------------|
--4--4--4------4--4--4--------7------------------------------------------|
-------------------------------------------------------------------------|

OUTRO

-------------------------------------------------------------------------|
------------------------------2-1------------------------------2-1-------|
-----------4---------4-----4----------------4----------4-----4-----------|
-------------------------------------------------------------------------|
--2--2--2----2--2--2-----2---------2--2--2-----2--2--2-----2-------------|


-------------------------------------------------------------------------|
-------------------------------------------------------------------------|
-------------------------------------------------------------------------|
--4--4--4--4--4--4--4--4--4--4--4--4-------------------------------------|
-------------------------------------------------------------------------|


Pretty easy song to play. Just watch out for some of the rhythms - I've tried to include
(more or less), but you'll really have to listen to the song to get the exact timing.
that this tab looks pretty long, just that James rarely plays the same thing twice, yet 
in various variants to it, such as part b(i) and (ii). Anyway, if you follow this you
be able to play the song pretty much exactly as he plays it.

Good luck.

Другие подборы этого исполнителя

Расскажи друзьям!




Привет, гитарист!

Пройди супер-курс по гитаре и порази всех своей игрой!

Забрать курс!
ВАМ ПОДАРКИ ОТ ПРОЕКТА
"ГИТАРНАЯ РЕВОЛЮЦИЯ"