Gitaristu.ru
Аккорды Табулатура Начинающим Мастер-класс Софт Видео
Новости Анонсы Гитары Гитаристы Статьи Аватарки Минусовки
Поиск



Популярные подборы




Настройка гитары






Главная > Аккорды > S > Sikth

Аккорды
Sikth
-
Skies Of Millenium Night bass (табулатура)

Не нашли аккорды к песне? Посмотрите на


Подбор прислал: gitaristu.ru
Sikth - Skies of Millennium Night (tapping part)


Tabbed by: Charlie Sabine
E-mail: charlie_sabine@hotmail.com

Standard Tuning - EADG

Kudos to James Leach naturally for writing this song, awesome bassist + does a fair few
riffs. The following tab is for the end of the song from 3:47 onwards. I know Sikth
play in standard tuning - if you want to play in their tuning then merely move the notes 
Also, some of the tapped notes are slid, so just change it when you play it.

Note - a 't' above a note means it's tapped with the right hand, while the rest of the
are played with the left hand.


      t  t                     t
------10-11--------t--t--------13----|
----8-----------8--11-13-----8-------|
--6---------9-6----------4-6---------|
-------------------------------------|


        t        t  t
--------11-------10-11--------t--t---|
------8--------8-----------8--11-13--|
--9-6------9-6---------9-6-----------|
-------------------------------------|


        t        t        t  t
--------13-------11-------10-11------|
------8--------8--------6------------|
--4-6------9-6------9-4--------------|
-------------------------------------|


                     t        t
---------t--t--------15-------13-----|
------6--11-13-----4----4---4----4---|
--6-4----------4-2--------2----------|
-------------------------------------|

Takes a few tries to get it up to speed, but overall it's a pretty fun riff to play. Oh
buy their new album - Death Of A Dead Day ;)

Другие подборы этого исполнителя

Расскажи друзьям!




Привет, гитарист!

Пройди супер-курс по гитаре и порази всех своей игрой!

Забрать курс!
ВАМ ПОДАРКИ ОТ ПРОЕКТА
"ГИТАРНАЯ РЕВОЛЮЦИЯ"