Gitaristu.ru
Аккорды Табулатура Начинающим Мастер-класс Софт Видео
Новости Анонсы Гитары Гитаристы Статьи Аватарки Минусовки
Поиск



Популярные подборы




Настройка гитары






Главная > Аккорды > S > Silverchair

Аккорды
Silverchair
-
Abuse me (табулатура)

Не нашли аккорды к песне? Посмотрите на


Подбор прислал: gitaristu.ru



Date: Sat, 14 Jul 2001 02:49:26 -0400
From: sander p 
Subject: s/silverchair/abuse_me.tab

Band: silverchair
Song: Abuse Me
Tuning: Dropped-D
Tabbed By: $@NDER

Intro
e|-----------------|---------------|----------------|----------------|
B|-----------------|---------------|----------------|----------------|
G|---------6-------|-------6-------|--------2-0-----|-------2--------|
D|-----0-----0-----|---0-----0-----|-----0------0---|-----0---0------|
A|---7---7-----7---|-7---7-----7---|--3----3------3-|---3-------3----|
D|-7-------------7-|-------------7|3---------------|-3-----------3/-|

|------------------|---------------|----------------|
|------------------|---------------|----------------|
|------6---6-0-----|-------6-------|----2---2-0-----|
|--------0-----0---|-----0---0-----|----------------|
|----7-----------7-|---7-------7---|--3---3-----3---|
|-/7---------------|-7-----------7|3-------------3-|

Verse
|---0-0-0-0---0--0-0---|
|---0-0-0-0---0--0-0---|
|---2-2-2-2/4-4--4-4/6-|
|---0-0-0-0---0--0-0---|
|---3-3-3-3/5-5--5-5/7-|
|---3-3-3-3/5-5--5-5/7-|
Chorus
|-0---0---0-0-0-0-|-0-0---0-0---0-|-0---0---0-0-0-0-|-0---0-0-0------|
|-0---0---0-0-0-0-|-0-0---0-0---0-|-0---0---0-0-0-0-|-0---0-0-0------|
|-6---6---6-6-6-6-|-6-6---6-6---6|-2---2---2-2-2-2-|-2---2-2-2/-----|
|-0---0---0-0-0-0-|-0-0---0-0---0-|-0---0---0-0-0-0-|-0---0-0-0------|
|-7---7---7-7-7-7-|-7-7---7-7---7|-3---3---3-3-3-3-|-3---3-3-3/-----|
|-7---7---7-7-7-7-|-7-7---7-7---7|-3---3---3-3-3-3-|-3---3-3-3/-----|

Bridge
|-----------------------------------------------------|
|-----------------------------------------------------|
|---2--2-2--------------11-11-11-11/12-12-12-12/14-14-|
|---2--2-2--3-3-0--0-0--------------------------------|
|---0--0-0--3-3-0--0-0---9--9--9--9/10-10-10-10/12-12-|
|-----------3-3-0--0-0--------------------------------|

|---------------------------------------------|
|---------------------------------------------|
|-2--2-2--------------5/7-7-7-7/9-9-9-97-7---|
|-2--2-2--3-3-0--0-0--------------------------|
|-0--0-0--3-3-0--0-0--3/5-5-5-5/7-7-7-75-5---|
|---------3-3-0--0-0--------------------------|

End on this
|-----------------------------------------------------------------|
|-----------------------------------------------------------------|
|-----------------------------------------------------------------|
|-0-0-0-0-0-3-3-0--0-0-0-0-3-3-0--3-3-0--3-3-0---0-0-0-0-0-0-0----|
|-0-0-0-0-0-3-3-0--0-0-0-0-3-3-0--3-3-0--3-3-0---0-0-0-0-0-0-0----|
|-0-0-0-0-0-3-3-0--0-0-0-0-3-3-0--3-3-0--3-3-0---0-0-0-0-0-0-0----|
    *******        *******                                           *: palm 
mute


Solo
|-12-12b13-13r12----------------------------------------------|
|-----------------1--/6--5--5/6--6/8--10-8/12--13/14-13----13-|
|--------------------------------------------------------------|
|--------------------------------------------------------------|
|--------------------------------------------------------------|
|--------------------------------------------------------------|

|--------------------------------9-10--9--10-12-12p109-10--------------|
|-13--12b13r12-10--5--8--8-10-----------------------------------------|
|-----------------------------------------------------------7-75-4-21-|
|-----------------------------------------------------------------------|
|-----------------------------------------------------------------------|
|-----------------------------------------------------------------------|


Другие подборы этого исполнителя

Расскажи друзьям!




Привет, гитарист!

Пройди супер-курс по гитаре и порази всех своей игрой!

Забрать курс!
ВАМ ПОДАРКИ ОТ ПРОЕКТА
"ГИТАРНАЯ РЕВОЛЮЦИЯ"