Gitaristu.ru
Аккорды Табулатура Начинающим Мастер-класс Софт Видео
Новости Анонсы Гитары Гитаристы Статьи Аватарки Минусовки
Поиск



Популярные подборы




Настройка гитары






Главная > Аккорды > S > Silverchair

Аккорды
Silverchair
-
Acid rain (табулатура)

Не нашли аккорды к песне? Посмотрите на


Подбор прислал: gitaristu.ru


From: bed@melbpc.org.au (Andrew Bednarz)
Subject: TAB: acid rain by silverchair


  SILVERCHAIR - Acid Rain - from the Tomorrow EP
--------------------------
  Tabulature by Andrew Bednarz (bed@melbpc.org.au)

    This is a bit dodgy in some places. Riff #1 doesnt sound
quit right.  Also near the end Riff #2 changes a little..  The song
jumps around a lot.  I've tried to include the order of everything.
Just listen to the song and its easy.

RIFF#1
    G                  F#    A
e:----------------------------------------------------|
B:----------------------------------------------------|
G:----------------------------------------------------|
D:--5--5--5--5--5--5---4--4--7------7-----------------|
A:--5--5--5--5--5--5---4--4--7------7-----------------|
E:--3--3--3--3--3--3---2--2--5------5-----------------|


                                                 
RIFF #2
   E
e:----------------------------------------------|
B:----------------------------------------------|
G:-1--------------------------------------------|
D:-2-------0------------------0h2---------------|
A:-2---0h2-------------0--0h2-------------------|
E:-0--------------------------------------------|


                                
RIFF #3
    E              G           D
e:------------------------------|
B:------------------------------|
G:--1--------------4------------|
D:--2--------------5-----------0|
A:--2--------------5-----------5|
E:--0--------------------------5|

ORDER
------

RIFF #1 x1

RIFF #2 x4

RIFF #3 x2

Другие подборы этого исполнителя

Расскажи друзьям!




Привет, гитарист!

Пройди супер-курс по гитаре и порази всех своей игрой!

Забрать курс!
ВАМ ПОДАРКИ ОТ ПРОЕКТА
"ГИТАРНАЯ РЕВОЛЮЦИЯ"