Gitaristu.ru
Аккорды Табулатура Начинающим Мастер-класс Софт Видео
Новости Анонсы Гитары Гитаристы Статьи Аватарки Минусовки
Поиск



Популярные подборы




Настройка гитары






Главная > Аккорды > S > Silverchair

Аккорды
Silverchair
-
Anas song (аккорды)

Не нашли аккорды к песне? Посмотрите на


Подбор прислал: gitaristu.ru



Date: Sun, 8 Jul 2001 13:25:27 -0400
From: sander p 
Subject: s/silverchair/anas_song.crd

Band: silverchair
Song: Ana's Song (Open Fire)
Tuning: Standard tuning.
Tabbed By: $@NDER
Verse
e|--6-6-6-6-3-3-3-3-3-3-3-3---3-3-3-| x4
B|--6-6-6-6-4-4-4-4-3-3-3-3---3-3-3-|
G|--8-8-8-8-5-5-5-5-3-3-3-3---3-3-3-|
D|--8-8-8-8-5-5-5-5-5-5-3-5---5-3-5-|
A|--6-6-6-6-3-3-3-3-5-5-3-5---5-3-5-|
E|------------------3-3-3-3---3-3-3-|

the i need you now solo thing
|-------------------------------|
|-2/10-11-10-3-4----------------|
|-------------------------------|
|-------------------------------|
|-------------------------------|
|-------------------------------|
prechorus
|---------------|
|---------------|
|-3-3-3---------|
|-3-3-3--3-3-3--|
|-1-1-1--3-3-3--|
|--------1-1-1--|
chorus
|-----------------------------------------------|
|---------------------------0-----0-----1-----1-|
|-----1-----1---------------2-----2-----2-----2-|
|-----2-----2-----4---4-----2-----2-----2-----2-|
|-----2-----2-----4---4-0-0-0-0-0-0-0-0-0-0-0-0-|
|-0-0-0-0-0-0-2-2-2-2-2-------------------------|
2nd chorus play this after the 1st part
|------------------------------|
|------------------------------|
|-5-5-5------------------------|
|-5-5-5--5-5-5-----------------|
|-3-3-3--5-5-5-----------------|
|--------3-3-3-----------------|
in te middle of 2nd verse play
|-------------------------------|
|-------------------------------|
|-8-8-8-8-8-8--8----------------|
|-8-8-8-8-7-7--8----------------|
|-6-6-6-6-6-6--6-5-5-3-5--5-3-5-|
|----------------3-3-3-3--3-3-3-|
prechorus 2
|---------------------------------|
|---------------------------------|
|-3-3-3-3-3-3-3-3-----------------|
|-3-3-3-3-3-3-3-3-3-3-3-3-3-3-3-3-|
|-1-1-1-1-1-1-1-1-3-3-3-3-3-3-3-3-|
|-----------------1-1-1-1-1-1-1-1-|
interlude
|------------------------|------------------------|
|------------------------|------------------------|
|-5-5-5-5-7-7-7-7-9-9--9-|-5-5-5-5-7-7-7-7------3-|
|-5-5-5-5-7-7-7-7-9-9--8-|-5-5-5-5-7-7-7-7-2-2--2-|
|-3-3-3-3-5-5-5-5-7-7--7-|-3-3-3-3-5-5-5-5-2-2--1-|
|-3-3-3-3-5-5-5-5--------|-----------------0-0----|

|-------------------------|------------------------0--|
|-------------------------|----------------------0----|
|-5-5-5-5--------------3--|-----3---------------------|
|-5-5-5-5-3-3-3-3-2-2--2--|---3---3-----3-------------|
|-3-3-3-3-3-3-3-3-2-2--1--|-1---------3---3----2------|
|-3-3-3-3-1-1-1-1-0-0-----|---------1--------0--------|


Другие подборы этого исполнителя

Расскажи друзьям!




Привет, гитарист!

Пройди супер-курс по гитаре и порази всех своей игрой!

Забрать курс!
ВАМ ПОДАРКИ ОТ ПРОЕКТА
"ГИТАРНАЯ РЕВОЛЮЦИЯ"