Gitaristu.ru
Аккорды Табулатура Начинающим Мастер-класс Софт Видео
Новости Анонсы Гитары Гитаристы Статьи Аватарки Минусовки
Поиск



Популярные подборы




Настройка гитары






Главная > Аккорды > S > Silverchair

Аккорды
Silverchair
-
Anas song (табулатура)

Не нашли аккорды к песне? Посмотрите на


Подбор прислал: gitaristu.ru



Date: Wed, 16 Apr 2003 14:01:02 +0000
From: adam stew 
Subject: s/silverchair/anas_song.tab


tabbed by guyho8@hotmail.com

Song:Ana's Song (Open Fire)
Album:Neon ballroom

this is a song off the best album of all time. it's not the best song on the 
C.D., but buy the album and you will get what I mean.

Verse
e|--------6--------3--3-3---3---3---3-| x4
B|--------6--------4--3-3---3---3---3-|
G|--8-8-8-8--5-5-5-5--3-3---3---3---3-|
D|--8-8-8-8--5-5-5-5--5-5-3-5---5-3-5-|
A|--6-6-6-6--3-3-3-3--5-5-3-5---5-3-5-|
E|--------------------3-3-3-3---3-3-3-|

^СAnd I need^Е^Т
|-----------------| x2
|-----------------|
|-----------------|
|------5/6-5------|
|-1-1---------3/5-|
|-----------------|

Bridge
|-1-1-1--1-1-1--|
|-1-1-1--1-1-1--|
|-3-3-3--2-2-2--|
|-3-3-3--3-3-3--|
|-1-1-1--3-3-3--|
|-1-1-1--1-1-1--|

Chorus 1 x2
|-----0-----0----------0-----0----------0-----0------------0-|
|-----0-----0----------0-----0----------0-----0------------1-|
|-----1-----1----------2-----2------2-2-2-2-2-2-2-2-2--2-2-2-|
|-2-2-2-2-2-2-2-2--2-2-2-2-2-2-2-2--2-2-2-2-2-2-2-2-2--2-2-2-|
|-2-2-2-2-2-2-2-2--x-x-x-x-x-x-x-x--0-0-0-0-0-0-0-0-0--0-0-0-|
|-0-0-0-0-0-0-0-0--2-2-2-2-2-2-2-2---------------------------|

Ply this after the chorus
e|--------------------------|-----------------|
B|--------------------------|-----------------|
G|--8-8-8--5-5-5-5----------|-----------------|
D|--8-8-8--5-5-5-5--5-5-3-5-|------5/6-5------|
A|--6-6-6--3-3-3-3--5-5-3-5-|-1-1---------3/5-|
E|------------------3-3-3-3-|-----------------|

Verse
e|--------6--------3--3-3---3---3---3-| x4
B|--------6--------4--3-3---3---3---3-|
G|--8-8-8-8--5-5-5-5--3-3---3---3---3-|
D|--8-8-8-8--5-5-5-5--5-5-3-5---5-3-5-|
A|--6-6-6-6--3-3-3-3--5-5-3-5---5-3-5-|
E|--------------------3-3-3-3---3-3-3-|

^СSandpaper tears ^Е^Т
|-------------------------------|
|-------------------------------|
|-8-8-8-8-8-8--8----------------|
|-8-8-8-8-7-7--8----------------|
|-6-6-6-6-6-6--6-5-5-3-5--5-3-5-|
|----------------3-3-3-3--3-3-3-|

^СAnd I need^Е^Т
|-----------------| x2
|-----------------|
|-----------------|
|------5/6-5------|
|-1-1---------3/5-|
|-----------------|

Bridge 2
|-1-1-1-1-1-1-1-1--1-1-1-1-1-1-1-1-|
|-1-1-1-1-1-1-1-1--1-1-1-1-1-1-1-1-|
|-3-3-3-3-3-3-3-3--2-2-2-2-2-2-2-2-|
|-3-3-3-3-3-3-3-3--3-3-3-3-3-3-3-3-|
|-1-1-1-1-1-1-1-1--3-3-3-3-3-3-3-3-|
|-1-1-1-1-1-1-1-1--1-1-1-1-1-1-1-1-|

Chorus 2
|-----0-----0----------0-----0----------0-----0------------0-----0-----
|-----0-----0----------0-----0----------0-----0------------1-----1-----
|-----1-----1----------2-----2------2-2-2-2-2-2-2-2-2--2-2-2-2-2-2-2-2-
|-2-2-2-2-2-2-2-2--2-2-2-2-2-2-2-2--2-2-2-2-2-2-2-2-2--2-2-2-2-2-2-2-2-
|-2-2-2-2-2-2-2-2--x-x-x-x-x-x-x-x--0-0-0-0-0-0-0-0-0--0-0-0-0-0-0-0-0-
|-0-0-0-0-0-0-0-0--2-2-2-2-2-2-2-2-------------------------------------

After chorus 2, play this, then repeat the chorus
e|--------------|
B|--------------|
G|-5-5-5--------|
D|-5-5-5--5-5-5-|
A|-3-3-3--5-5-5-|
E|--------3-3-3-|

^СAnd you^Тre my obsession^Е^Т
|--------------------------|--------------------------|
|--------------------------|--------------------------|
|-5-5-5-5--7-7-7-7--9-9--9-|-5-5-5-5--7-7-7-7-------3-|
|-5-5-5-5--7-7-7-7--9-9--8-|-5-5-5-5--7-7-7-7--2-2--2-|
|-3-3-3-3--5-5-5-5--7-7--7-|-3-3-3-3--5-5-5-5--2-2--1-|
|--------------------------|-------------------0-0----|

|--------------------------|------------------------0-|
|--------------------------|----------------------0---|
|-5-5-5-5----------------3-|-----3-------2------------|
|-5-5-5-5--3-3-3-3--2-2--2-|---3---3------------------|
|-3-3-3-3--3-3-3-3--2-2--1-|-1---------3---3----2-----|
|-------------------0-0----|---------1--------0-------|

e|--------------|
B|--------------|
G|-5-5-5--------|
D|-5-5-5--5-5-5-|
A|-3-3-3--5-5-5-|
E|--------3-3-3-|

Chorus 3
|-----0-----0----------0-----0----------0-----0------------0-----0-----
|-----0-----0----------0-----0----------0-----0------------1-----1-----
|-----1-----1----------2-----2------2-2-2-2-2-2-2-2-2--2-2-2-2-2-2-2-2-
|-2-2-2-2-2-2-2-2--2-2-2-2-2-2-2-2--2-2-2-2-2-2-2-2-2--2-2-2-2-2-2-2-2-
|-2-2-2-2-2-2-2-2--x-x-x-x-x-x-x-x--0-0-0-0-0-0-0-0-0--0-0-0-0-0-0-0-0-
|-0-0-0-0-0-0-0-0--2-2-2-2-2-2-2-2-------------------------------------


After chorus 3, play this
e|--------------|
B|--------------|
G|-5-5-5--------|
D|-5-5-5--5-5-5-|
A|-3-3-3--5-5-5-|
E|--------3-3-3-|

Finish with
|-0-0-0-0-0-0^Ч-0-0-0-0-0-0--0-
|-0-0-0-0-0-0--0-0-0-0-0-0^Ч-1-
|-1-1-1-1-1-1--2-2-2-2-2-2--2-
|-2-2-2-2-2-2--2-2-2-2-2-2--2-
|-2-2-2-2-2-2--x-x-x-x-x-x--0-
|-0-0-0-0-0-0--2-2-2-2-2-2----

the end


Другие подборы этого исполнителя

Расскажи друзьям!




Привет, гитарист!

Пройди супер-курс по гитаре и порази всех своей игрой!

Забрать курс!
ВАМ ПОДАРКИ ОТ ПРОЕКТА
"ГИТАРНАЯ РЕВОЛЮЦИЯ"