Gitaristu.ru
Аккорды Табулатура Начинающим Мастер-класс Софт Видео
Новости Анонсы Гитары Гитаристы Статьи Аватарки Минусовки
Поиск



Популярные подборы




Настройка гитары






Главная > Аккорды > S > Silverchair

Аккорды
Silverchair
-
Anas Song Acoustic (табулатура)

Не нашли аккорды к песне? Посмотрите на


Подбор прислал: gitaristu.ru
                    TRANSCRIPTION BY GRANT MCBRIDE
                    (the_seventh_wave_@hotmail.com)        

Ana's Song (Open Fire) - Acoustic Version
Silverchair
Neon Ballroom

Transcribed by Grant McBride

TUNING - Standard (EADGBE)

KEY
x - muted string
* - special info pertaining to part

[Verse] 
|------------------------------|x6
|--8-8-8--4-4-4----------------|
|--8-8-8--5-5-5--3-3-3-3--3-3--|
|--8-8-8--5-5-5--5-5-3-5--5-3--|
|--6-6-6--3-3-3--5-5-3-5--5-3--|
|--6-6-6--3-3-3--3-3-3-3--3-3--|

Please die Ana
For as long as you're here we're not
You make the sound of laughter
And sharpened nails seem softer

And I need you now somehow
And I need you now somehow

[Bridge]
|----------------|
|----------------|
|--3-3-3--2-2-2--|
|--3-3-3--3-3-3--|
|--1-1-1--3-3-3--|
|---------1-1-1--|

[Chorus]
|------0-------0---------0-------0------0-------0-------0-------0--|
|------0-------0---------0-------0------0-------0-------0-------0--|
|------1-------1---------2-------2--2-2-2-2-2-2-2-2-2-2-2-2-2-2-2--|
|--2-2-2-2-2-2-2-----4-4-4-4-4-4-4--2-2-2-2-2-2-2-2-2-2-2-2-2-2-2--|
|--2-2-2-2-2-2-2-----x-x-x-x-x-x-x--0-0-0-0-0-0-0-0-0-0-0-0-0-0-0--|
|--0-0-0-0-0-0-0

Другие подборы этого исполнителя

Расскажи друзьям!




Привет, гитарист!

Пройди супер-курс по гитаре и порази всех своей игрой!

Забрать курс!
ВАМ ПОДАРКИ ОТ ПРОЕКТА
"ГИТАРНАЯ РЕВОЛЮЦИЯ"