Gitaristu.ru
Аккорды Табулатура Начинающим Мастер-класс Софт Видео
Новости Анонсы Гитары Гитаристы Статьи Аватарки Минусовки
Поиск



Популярные подборы




Настройка гитары






Главная > Аккорды > S > Silverchair

Аккорды
Silverchair
-
Anthem For The Year 2000

Не нашли аккорды к песне? Посмотрите на


Подбор прислал: gitaristu.ru
играется почти во всей песне
|-------------------------------|
|-------------------------------|
|-------------------------------|
|-7--7--5--7--5--2--3--3--5--2--|
|-7--7--5--7--5--2--3--3--5--2--|
|-5--5--3--5--3--0--1--1--3--0--|

иногда встречается
|--------------|
|--------------|
|--------------|
|-7--7--10--12-|
|-7--7--10--12-|
|-5--5--8-- 10-|

всё будет понятно если песню послушать

Другие подборы этого исполнителя

Расскажи друзьям!




Привет, гитарист!

Пройди супер-курс по гитаре и порази всех своей игрой!

Забрать курс!
ВАМ ПОДАРКИ ОТ ПРОЕКТА
"ГИТАРНАЯ РЕВОЛЮЦИЯ"