Gitaristu.ru
Аккорды Табулатура Начинающим Мастер-класс Софт Видео
Новости Анонсы Гитары Гитаристы Статьи Аватарки Минусовки
Поиск



Популярные подборы




Настройка гитары






Главная > Аккорды > S > Silverchair

Аккорды
Silverchair
-
Anthem for the year 2000 (табулатура)

Не нашли аккорды к песне? Посмотрите на


Подбор прислал: gitaristu.ru



From: Baillie Ferris 
Subject: s/silverchair/anthem_for_the_year_2000.tab
Date: Tue, 13 Apr 1999 23:23:28 PDT

Song: Anthem for The Year 2000
Artist: Silverchair
Transcriber: Baillie Ferris 

All right boys and girls, this is that kick ass song by silverchair
Anthem for the year 2000. You know you like it, or you wouldn't be
here trying to play it. This is the single version (and album version)
it's the same just a little shorter, all the riffs are tabbed from 
both.
Anyway have fun, it's real easy to play, that's why I could tab it 

Order:

Main Riff * 4 
Main Riff * 4
Bridge #1 * 1
Verse #1 * 5 (single version in album version 6)
Main Riff * 4
Bridge #2 *2
Verse #2 * 3 (sINGLE VERSION ONLY)
Fill towards chorus * 1 (SINGLE VERSION ONLY)
Main Riff * 8
Bridge #2 *2

Main Riff:

-------------------------------------------------
-------------------------------------------------
-------------------------------------------------
--7--7--5--7--5---2-3-3/12-2---------------------
--7--7--5--7--5---2-3-3/12-2---------------------
--7--7--5--7--5---2-3-3/12-2---------------------

Bridge #1:

-------------------------------------------------
-------------------------------------------------
-------------------------------------------------
--7~~~~~-/1--------------------------------------
--7~~~~~-/1--------------------------------------
--7~~~~~-/1--------------------------------------

Bridge #2:

-------------------------------------------------
-------------------------------------------------
-------------------------------------------------
-7--7------5--3-3--------------------------------
-7--7------5--3-3--------------------------------
-7--7------5--3-3--------------------------------

Verse #1:

-------------------------------------------------
-------------------------------------------------
1/6--8---8---8------------------------------------
-------9---7-------------------------------------
-------------------------------------------------
-------------------------------------------------

Verse #2:

-------------------------------------------------
-------------------------------------------------
-2~~~~~-2-2-2/3~~~~~~-3-3-3/5~~~~~~~~~~~-5-5-----
-------------------------------------------------
-------------------------------------------------
-------------------------------------------------

Fill towards Chorus:

-------------------------------------------------
-------------------------------------------------
-5/7-5--7--8--7--8-8/12--------------------------
-------------------------------------------------
-------------------------------------------------
-------------------------------------------------


Другие подборы этого исполнителя

Расскажи друзьям!




Привет, гитарист!

Пройди супер-курс по гитаре и порази всех своей игрой!

Забрать курс!
ВАМ ПОДАРКИ ОТ ПРОЕКТА
"ГИТАРНАЯ РЕВОЛЮЦИЯ"