Gitaristu.ru
Аккорды Табулатура Начинающим Мастер-класс Софт Видео
Новости Анонсы Гитары Гитаристы Статьи Аватарки Минусовки
Поиск



Популярные подборы




Настройка гитары






Главная > Аккорды > S > Silverchair

Аккорды
Silverchair
-
Anthem for the year 200 real (табулатура)

Не нашли аккорды к песне? Посмотрите на


Подбор прислал: gitaristu.ru


written by: David
Any complaints or compliments: ur_enemy_is@hotmail.com
This is dedicated to my freind sharni who is having the same problem Daniel Johns had 4 years ago

Downtune E to d

intro
e|----------------------------------------------|
B|----------------------------------------------|
G|----------------------------------------------|
D|-7-7-5-7-5--2-3-3--5-0------------------------|
A|-7-7-5-7-5--2-3-3--3-0------------------------|
D|-7-7-5-7-5--2-3-3----0------------------------|


e|----------------------------------------------|
B|----------------------------------------------|
G|----------------------------------------------|
D|-7-7-5-7-5--2-3-3--5-0------------------------|
A|-7-7-5-7-5--2-3-3--3-0------------------------|
D|-7-7-5-7-5--2-3-3----0------------------------|

chorus
e|----------------------------------------------|
B|----------------------------------------------|
G|----------------------------------------------|
D|-7-7-5-7-5--2-3-3--5-0------------------------|
A|-7-7-5-7-5--2-3-3--3-0------------------------|
D|-7-7-5-7-5--2-3-3----0------------------------|

e|----------------------------------------------|
B|----------------------------------------------|
G|----------------------------------------------|
D|-7-7-5-7-5--2-3-3--5-0------------------------|
A|-7-7-5-7-5--2-3-3--3-0------------------------|
D|-7-7-5-7-5--2-3-3----0------------------------|


fill after chorus
e|----------------------------------------------|
B|-----5-5--------5-5---------------------------|
G|----7-5-3------7-5-3--------------------------|
D|----------------------------------------------|
A|----------------------------------------------|
D|----------------------------------------------|
 then whilst singing
e|----------------------------------------------|
B|-----5-5--------5-5---------------------------|
G|----7-5-3------7-5-3--------------------------|
D|----------------------------------------------|
A|----------------------------------------------|
D|----------------------------------------------|

 Thats the basic beat to the song, im pretty sure its right after watchin his live dvd a couple of hundred times :P



Другие подборы этого исполнителя

Расскажи друзьям!




Привет, гитарист!

Пройди супер-курс по гитаре и порази всех своей игрой!

Забрать курс!
ВАМ ПОДАРКИ ОТ ПРОЕКТА
"ГИТАРНАЯ РЕВОЛЮЦИЯ"