Gitaristu.ru
Аккорды Табулатура Начинающим Мастер-класс Софт Видео
Новости Анонсы Гитары Гитаристы Статьи Аватарки Минусовки
Поиск



Популярные подборы




Настройка гитары






Главная > Аккорды > S > Silverchair

Аккорды
Silverchair
-
Dearest helpless (табулатура)

Не нашли аккорды к песне? Посмотрите на


Подбор прислал: gitaristu.ru



Date: Sat, 14 Jul 2001 02:50:24 -0400
From: sander p 
Subject: s/silverchair/dearest_helpless.tab

Band: silverchair
Song: Dearest Helpless
Tuning:standard
Tabbed By $@NDER

Intro/Chorus
e|----------------------------|--------------------------------|
B|----------------------------|--------------------------------|
G|-----3----------------------|-----3--------------------------|
D|-------2--4-5----5----7-7---|-------2--4-5----5------5b6r5---|
A|-1-1------4-5-/4---4--5-5-0-|-1-1------4-5-/4---4--4---------|
E|----------2-3---------5-5---|----------2-3-----------------5-|
   ***                          ***                              *:P.M.
|----------------------------|--------------|
|----------------------------|--------------|
|-----3----------------------|-----3--------|
|-------2--4-5----5----7-7---|-------2------|
|-1-1------4-5-/4---4--5-5-0-|-1-1------4-4-|
|----------2-3---------5-5---|----------2-3-|
  ***                          ***

Verse
|-------------------------------------------------------------|
|-------------------------------------------------------------|
|-------------------------------------------------------------|
|-------------------------------------------------------------|
|---8-8-8-8-8-8-8-5-5-5-5-10-10-10-10-8-8-8-8---8-8-8-8-7-7---|
|---6-6-6-6-7-7-7-3-3-3-3--8--8--8--8-6-6-6-6---6-6-6-6-6-6---|

After the chorus play this
|---------------------------|
|---------------------------|
|-------3----------3--------|
|-----3----------3-------0--|
|---1-----3-3--1-----3-4-0--|
|---------2-2--------2-2----|
            ***        *****

Bridge
|----------------------------------------------------|
|----------------------------------------------------|
|------8-----------8-----------3-----------3---------|
|----8-------9---8-------9---3-------4---3-------4---|
|--6-------9---6-------9---1-------4---1-------4-----|
|--------7-----------7-----------2-----------2-------|


|--------------------------------|-----------------------|
|--------------------------------|-----------------------|
|-----3------------3-------------|-3---------------------|
|---3---4-4-4----3---------------|---2--4-5----5---7-7---|
|-1-----4-4-4--1-----4--4--5----|------4-5-/4---4-5-5-5-|
|-------2-2-2--------2--4--5----|------2-3--------5-5---|
        *****        *******            ***        ***


Другие подборы этого исполнителя

Расскажи друзьям!




Привет, гитарист!

Пройди супер-курс по гитаре и порази всех своей игрой!

Забрать курс!
ВАМ ПОДАРКИ ОТ ПРОЕКТА
"ГИТАРНАЯ РЕВОЛЮЦИЯ"