Gitaristu.ru
Аккорды Табулатура Начинающим Мастер-класс Софт Видео
Новости Анонсы Гитары Гитаристы Статьи Аватарки Минусовки
Поиск



Популярные подборы




Настройка гитары






Главная > Аккорды > S > Silverchair

Аккорды
Silverchair
-
Do you feel the same (табулатура)

Не нашли аккорды к песне? Посмотрите на


Подбор прислал: gitaristu.ru



Date: Sat, 14 Jul 2001 02:51:29 -0400
From: sander p 
Subject: s/silverchair/do_you_feel_the_same.tab

Band: silverchair
Song: Do You Feel The Same
Tuning: Standard
Tabbed by: $@NDER

Verse
e|-------0-----------1---------|
B|-------1---1-0-----1-----0---|
G|---2====---2-0-----2-----0---|
D|---2====---2-0-3-------3-0---|
A|---0====-------3-------3-----|
E|---------------1-------1-----|

Prechorus
|-3--3--3-3---1-1--0--0-0--0--0-0-|-3--3--3-3---1-1--0-|
|-3--3--3-3---1-1--1--1-1--1--1-1-|-3--3--3-3---1-1--1-|
|-0--0--0-0---2-2--0--0-0--0--0-0-|-0--0--0-0---2-2--2-|
|-0--0--0-0---3-3--2--2-2--2--2-2-|-0--0--0-0---3-3--2-|
|-x--x--x-x---3-3--3--3-3--3--3-3-|-x--x--x-x---3-3--0-|
|-3--3--3-3---1-1-----------------|-3--3--3-3---1-1----|

Chorus
|-------------|-----------|
|-----------3-|-----------|
|-2---------2-|-2---------|
|-2---3---3-0-|-2---3---5-|
|-0---3---3---|-0---3---5-|
|-----1---1---|-----1---3-|

verse 3(with lots of effects)
|--------------|--------------|
|--------------|--------------|
|--------------|--------------|
|--------------|--------------|
|-----3--------|-----3--------|
|-5-------1----|-5-------1----|

Guitar solo (with delay and reverb)
|---------------------------------------------------|
|-7b9r7---------------------------------------------|
|-7b9r7^p5---5------5b------------------------------|
|--------------7-7~------------------------------5--|
|----------7-------------------3---3-5-3-5-7-5-7---7|
|------------------------5-3-5---5------------------|

|--------------------------------5----------|
|---------------------8---5-8b10---8--------|
|---------5b7-5-7-7b9---7------------5~-6-7-|
|-5-7-5-7-----------------------------------|
|-------------------------------------------|
|-------------------------------------------|


|---------------------------------------
|---------------------------------------
|---------------------------------------
|-/7------------------5-5---5h7~------7-
|----6------------5h7-----7------8-8~---
|------5-7b9r7-5-----------------------

|------------------------------------------|
|------------------------------------------|
|------------------------------------------|
|-------------7---------------7------------|
|6-0--------7---6-----5~-7--7---6-----5~-7-|
|--5-8/10~--------5-8-------------5-8------|

|---------------------------------------------------|
|---------------------------------------------------|
|--------------5-7b9r7-5~--4-5-4-5h4----------------|
|--------5h7-7-----------------------5-5/75/75...-| (delay)
|--5h7-7--------------------------------------------|
|---------------------------------------------------|


Outro
|------------3--------------------|---|
|-----1-0--0-0--0-----1-1-----0---|-0-|
|---2------2-2----2---2---2-----2-|-0-|
|---2------2--------0-3-----3---3-|-3-|
|-0-------------------3---------3-|-3-|
|---------------------------------|-1-|


Другие подборы этого исполнителя

Расскажи друзьям!




Привет, гитарист!

Пройди супер-курс по гитаре и порази всех своей игрой!

Забрать курс!
ВАМ ПОДАРКИ ОТ ПРОЕКТА
"ГИТАРНАЯ РЕВОЛЮЦИЯ"