Gitaristu.ru
Аккорды Табулатура Начинающим Мастер-класс Софт Видео
Новости Анонсы Гитары Гитаристы Статьи Аватарки Минусовки
Поиск



Популярные подборы




Настройка гитары






Главная > Аккорды > S > Silverchair

Аккорды
Silverchair
-
Emotion sickness (табулатура)

Не нашли аккорды к песне? Посмотрите на


Подбор прислал: gitaristu.ru



Date: Wed, 17 Oct 2001 23:52:40 -0400
From: sander p 
From: Mendoza Collantes  (by way of cathal woods)
Subject: s/silverchair/emotion_sickness.tab

Band: Silverchair
Song: Emotion Sickness

Tuning: Db-Ab-Db-Ab-Db-Db low to high
 tune down the low E string to Db (1.5 steps down)
 tune down the A string to Ab (0.5 step down)
 tune down the D string to Db (0.5 step down)
 tune up the G string to Ab (0.5 step up)
 tune up the B string to Db (1 step up)
 tune down the high E string to Db (1.5 steps down)
 ***** = palm muted

Tabbed by:CHINDO

INTRO
Db|---0-0-0--0-0-0--0-0-0--0-0-0---| x2
Db|---0-0-0--0-0-0--0-0-0--0-0-0---|
Ab|---3-3-3--3-3-3--3-3-3--5-5-5---|
Db|---3-3-3--3-3-3--3-3-3--5-5-5---|
Ab|---0-0-0--x-x-x--1-1-1--0-0-0---|
Db|---0-0-0--3-3-3-----------------|

|-----------------------------------------------------------------|
|-----------------------------------------------------------------|
|-----3-------3-------3-------3-------3-------3-------0-------0---|
|---3---3---3---3---3---3---3---3---3---3---3---3---3---3---3---3-|
|-----------------1-------0-------1-------1-------1-------1-------|
|-0-------3-------------------------------------------------------|
Erupt
|-----------------------------------------------------------------|
|-----------------------------------------------------------------|
|-----3-------3-------3-------3-------3-------3-------3-------3---|
|---3---3---3---3---3---3---3---3---3---3---3---3---3---3---2---2-|
|-----------------1-------0-------1-------1-------3-------3-------|
|-0-------3-------------------------------------------------------|
And I
|-----------------------------------------------------------------|
|-------------------------------------0-------0-------0------0----|
|-----3-------3-------3-------3---------3-------3-------3------3--|
|---3---3---3---3---3---3---3---3---3-------3------3--------3-----|
|-----------------1-------0-------1-------1-------1-------1-------|
|-0-------3-------------------------------------------------------|
Sacrifice
|-----------------------------------------------------------------|
|-----------------------------------------------------------------|
|-----3-------3-------3-------3-------3-------3-------3-------3---|
|---3---3---3---3---3---3---3---3---3---3---3---3---3---3---2---2-|
|-----------------1-------0-------1-------1-------3-------3-------|
|-0-------3-------------------------------------------------------|
Orchestral tear cash-flow

Play intro again

|-----------------------------------------------------------------|
|-------------------------------------0-------0-------0-------0---|
|-----3-------3-------3-------3---------3-------3-------3-------3-|
|---3---3---3---3---3---3---3---3---3-------3-------3-------3-----|
|-----------------1-------0-------1-------1-------1-------1-------|
|-0-------3-------------------------------------------------------|
Increase
|-----------------------------------------------------------------|
|-----------------------------------------------------------------|
|-----3-------3-------3-------3-------3-------3-------3-------3---|
|---3---3---3---3---3---3---3---3---3---3---3---3---3---3---2---2-|
|-----------------1-------0-------1-------1-------3-------3-------|
|-0-------3-------------------------------------------------------|
Cotton case
|----------------------------------------------------|
|-----2-------2-------0-------0--------------------5-|
|-------0-------0---0---0---0---0-----4-------4----4-|
|---2-------2-----0-------0---------2---2---2---2--2-|
|-0-------0-----------------------0-------0--------0-|
|----------------------------------------------------|
Distorted eyes
When everything is clearly dying

|-------------------------------------------------------------------| x4
|-----7-------8--------8--------7-------7-------7-------7-------7---|
|---8---8---7---7---10---10---8---8---7---7---7---7---4---4---4---4-|
|-0-------0-------0---------0-------0-------0-------0-------0-------|
|-------------------------------------------------------------------|
|-------------------------------------------------------------------|
Burn my knees and (x3)

|-----0---0-------0-----7----|
|---7-------7---7-----0------|
|-4-----4-----4-----4--------|
|----------------------------|
|----------------------------|
|----------------------------|

|-0-0-0-0-0-0-0-0-0-0-0-0-0-0-0-0-0-0-0-0-0-0-0-0-0-0-0-0-0-0-0-0-|
|-0-0-0-0-0-0-0-0-0-0-0-0-0-0-0-0-0-0-0-0-0-0-0-0-0-0-0-0-0-0-0-0-|
|-7-7-7-7-7-7-7-7-7-7-7-7-7-7-7-7-5-5-5-5-5-5-5-5-5-5-5-5-5-5-5-5-|
|-7-7-7-7-7-7-7-7-7-7-7-7-7-7-7-7-5-5-5-5-5-5-5-5-5-5-5-5-5-5-5-5-|
|-5-5-5-5-5-5-5-5-5-5-5-5-5-5-5-5-3-3-3-3-3-3-3-3-3-3-3-3-3-3-3-3-|
|-0-0-0-0-0-0-0-0-0-0-0-0-0-0-0-0-0-0-0-0-0-0-0-0-0-0-0-0-0-0-0-0-|
x3

|----------------------------------------------------|
|-----2-------2-------0-------0--------------------5-|
|-------0-------0---0---0---0---0-----4-------4----4-|
|---2-------2-----0-------0---------2---2---2---2--2-|
|-0-------0-----------------------0-------0--------0-|
|----------------------------------------------------|
Distorted eyes
When everything is clearly dying

x2
|----------------------------------------------------------------------------|
|----------------------------------------------------------------------------|
|-12-12-12-12-12--12-12-12-12-12-12--12/10-10-10-10-10-10--10-10-10-10-10-10-|
|-12-12-12-12-12--12-12-12-12-12-12--12/10-10-10-10-10-10--10-10-10-10-10-10-|
|-12-12-12-12-12--12-12-12-12-12-12--12/10-10-10-10-10-10--10-10-10-10-10-10-|
        ** **              ** **                 ** **              ** **

||----------------------------------------------|| x4
||----------------------------------------------||
||----------------------3--3-3-3-4--4-4-4-4-----||
||-0--0-0-0-0--0-0-0-0--3--3-3-3-4--4-4-4-4-----||
||-0--0-0-0-0--0-0-0-0--1--1-0-1-2--2-2-2-2-----||
||-0--0-0-0-0--0-0-0-0--------------------------||
        * *      * *                  * *

x4
|---------------------------------------------------------------------|
|-----7-------8--------8--------7-----------3--------------2-----0----|
|---8---8---7---7---10---10---8---8-----0-----0--------3-----3-----3--|
|-0-------0-------0---------0---------5---5-----5----0---0-----0------|
|-----------------------------------3--------------3------------------|
|---------------------------------------------------------------------|
Burn my knees and pray

|-0-0-0-0-0-0-0-0-0-0-0-0-0-0-0-0-0-0-0-0-0-0-0-0-0-0-0-0-0-0-0-0-|
|-0-0-0-0-0-0-0-0-0-0-0-0-0-0-0-0-0-0-0-0-0-0-0-0-0-0-0-0-0-0-0-0-|
|-7-7-7-7-7-7-7-7-7-7-7-7-7-7-7-7-5-5-5-5-5-5-5-5-5-5-5-5-5-5-5-5-|
|-7-7-7-7-7-7-7-7-7-7-7-7-7-7-7-7-5-5-5-5-5-5-5-5-5-5-5-5-5-5-5-5-|
|-5-5-5-5-5-5-5-5-5-5-5-5-5-5-5-5-3-3-3-3-3-3-3-3-3-3-3-3-3-3-3-3-|
|-0-0-0-0-0-0-0-0-0-0-0-0-0-0-0-0-0-0-0-0-0-0-0-0-0-0-0-0-0-0-0-0-|
Get up

Outro
|---0-0-0--0-0-0--0-0-0--0-0-0---| x3
|---0-0-0--0-0-0--0-0-0--0-0-0---|
|---3-3-3--3-3-3--3-3-3--5-5-5---|
|---3-3-3--3-3-3--3-3-3--5-5-5---|
|---0-0-0--x-x-x--1-1-1--0-0-0---|
|---0-0-0--3-3-3-----------------|

|---0-0-0--0-0-0-0-0-0---|
|---0-0-0--0-0-0-0-0-0---|
|---3-3-3--3-3-3-3-3-3---|
|---3-3-3--3-3-3-2-2-2---|
|---1-1-1--3-3-3-3-3-3---|

|---------8-----10-----8-----0-------------------------------------|
|-----7-----7------7-----7-----7------------0-------------2---0----|
|---8---8-----8------8-----8-----0------4-----4-------3-----3---3--|
|-0-----------------------------------4---------4---3---3----------|
|-----------------------------------2-----2-------1----------------|
|------------------------------------------------------------------|

x4
|-0--0-0-0-0-0-0-0-|-0--0-0-0--0-0-0-0-0--|
|-0--7-7-7-5-5-5-5-|-0--0-0-0--2-2-2-0-0--|
|-0--8-8-8-5-5-5-5-|-3--3-3-3--3-3-3-3-3--|
|-0--0-0-0-0-0-0-0-|-3--3-3-3--3-3-3-3-3--|
|-0--0-0-0-0-0-0-0-|-1--1-1-1--1-1-1-1-1--|
|-0--0-0-0-0-0-0-0-|-0--0-0-0--0-0-0-0-0--|

|---------8-----10-----8-----0---------------------------------------|
|-----7-----7------7-----7-----7------------0-------------0-----0----|
|---8---8-----8------8-----8-----0------3-----3-------4-----4-----4--|
|-0-----------------------------------3---------3---4---4-----4------|
|-----------------------------------1-----1-------2------------------|
|--------------------------------------------------------------------|

|---------8-----10-----8-----0---------------------0----|
|-----7-----7------7-----7-----7------------0------0---|
|---8---8-----8------8-----8-----0------3-----3----4---|
|-0-----------------------------------3---------3--4---|
|-----------------------------------1-----1--------2---|
|--------------------------------------------------0---|


Другие подборы этого исполнителя

Расскажи друзьям!




Привет, гитарист!

Пройди супер-курс по гитаре и порази всех своей игрой!

Забрать курс!
ВАМ ПОДАРКИ ОТ ПРОЕКТА
"ГИТАРНАЯ РЕВОЛЮЦИЯ"