Gitaristu.ru
Аккорды Табулатура Начинающим Мастер-класс Софт Видео
Новости Анонсы Гитары Гитаристы Статьи Аватарки Минусовки
Поиск



Популярные подборы




Настройка гитары






Главная > Аккорды > S > Silverchair

Аккорды
Silverchair
-
Faultline (табулатура)

Не нашли аккорды к песне? Посмотрите на


Подбор прислал: gitaristu.ru


FAULTLINE By Silverchair
(From the album FROGSTOMP)

Transcribed by Josh Gavant
74027.264@compuserve.com

Tuning: Dropped D


          B5*   Csus2 Dsus2

E-----------------3-----5--
B-----------------3-----5--
G-----------------5-----7--
D------------8----5-----7--
A----------8------3-----5--
D--------8-----------------


Intro:

E-------------------
B-------------------
G-------------------
D-----------8-5-----
A---------8---5-----
D---0-3-5-----5-----

Verse:

Dsus2           Csus2
   Unsuspecting brother  ...
                     B5*          G5
When everything just ...
Dsus2                   Csus2
   He runs to find some cover   He ...
                     B5*      G5
That his friend will ...
     B5*    C5      B5*        G
When he's informed...
        
Pre Chorus:   F5 F5 G5

Chorus:
   
D5                    F5                      D#5
  We'll never see the boy, ...
                    B5       G5
We'll never see him ...
D5                    F5                       G5
  We'll never see the boy, ...
                    B5       G5
We'll only hear his ...
Post Chorus:
        Bb5  C5   Bb5  G5   F5 F5 G5  
        Ooh  Yea  ....
        D5   A5 Bb5 G5   D5   A5 B5 C5
        Ahhhhhhhhhhhhh   Ahhhhhhhhhhhh

Bridge:

    C D  D      Ab G F    D F D G
E |-------------------------------|
B |-------------------------------|
G |-------------------------------|
D |-3-0--0-0-0-0-6-5-3-3--0-3-0-5-|
A |-3-0--0-0-0-0-6-5-3-3--0-3-0-5-|
D |-3-0--0-0-0-0-6-5-3-3--0-3-0-5-|

D Bb A G

Outro:

    D       G  D F  D F D F G C

E |-----------------------------|
B |-----------------------------|  This part is played
G |-----------------------------|  Really Fast 
D |---------------------------5-|
A |-0-0-0-0-5--0-3--0-3-0-3-5-3-|
E |-0-0-0-0-5--0-3--0-3-0-3-5---|

    D       BbG F  D F D F G C

E |----------------------------|
B |----------------------------|  He does this a couple
G |----------------------------|  Times
D |--------------------------5-|
A |-0-0-0-0-6-5-3--0-3-0-3-5-3-|
E |-0-0-0-0-6-5-3--0-3-0-3-5---|


Другие подборы этого исполнителя

Расскажи друзьям!




Привет, гитарист!

Пройди супер-курс по гитаре и порази всех своей игрой!

Забрать курс!
ВАМ ПОДАРКИ ОТ ПРОЕКТА
"ГИТАРНАЯ РЕВОЛЮЦИЯ"