Gitaristu.ru
Аккорды Табулатура Начинающим Мастер-класс Софт Видео
Новости Анонсы Гитары Гитаристы Статьи Аватарки Минусовки
Поиск



Популярные подборы




Настройка гитары






Главная > Аккорды > S > Silverchair

Аккорды
Silverchair
-
Findaway (аккорды)

Не нашли аккорды к песне? Посмотрите на


Подбор прислал: gitaristu.ru



Date: Sat, 14 Jul 2001 02:53:08 -0400
From: sander p 
Subject: s/silverchair/findaway.crd

Band: silverchair
Song: Findaway
Tuning: Dropped-D
Tabbed by: $@NDER

Intro
E|---------------------------------------|
B|---------------------------------------|
G|-8-8-8-8-8-8-8-8-8-8-8-----------------|
D|-8-8-8-8-8-8-8-8-8-8-8-----------------|
A|-6-6-6-6-6-6-6-6-6-6-6-----------------|
D|---------------------------------------|

Verse
E|---------------------------------------|
B|---------------------------------------|
G|-10-10-10-x-5-5-5-5-x-8-8-8-x-3-3-3-3--|
D|-10-10-10-x-5-5-5-5-x-8-8-8-x-3-3-3-3--|
A|-8--8--8--x-3-3-3-3-x-6-6-6-x-1-1-1-1--|
D|-8--8--8--x-3-3-3-3-x-6-6-6-x-1-1-1-1--|

E|----------------------------------------|
B|----------------------------------------|
G|-10-10-10-x-5-5-5-5-x-8-8-8-8-x-8-8-8-8-|
D|-10-10-10-x-5-5-5-5-x-8-8-8-8-x-8-8-8-8-|
A|-8--8--8--x-3-3-3-3-x-6-6-6-6-x-6-6-6-6-|
D|-8--8--8--x-3-3-3-3-x-6-6-6-6-x-6-6-6-6-|

Interlude
E|---------------------------------------|
B|---------------------------------------|
G|-6-6-6---6-6---------------------------|
D|-6-6-6-0-6-6-0-2h3-0-------------------|
A|-4-4-4-0-4-4-0-2h3-0-------------------|
D|-4-4-4-0-4-4-0-2h3-0-------------------|

Chorus
E|---------------------------------------|
B|-1-1-1-1-0-0-0-0-----------------------|
G|-0-0-0-0-2-2-2-2-3-3-3-x-5-5-5-5-------|
D|-2-2-2-2-2-2-2-2-3-3-3-x-5-5-5-5-------|
A|-3-3-3-3-0-0-0-0-1-1-1-x-3-3-3-3-------|
D|---------------------------------------|

Solo play each chord a couple of times
E|---------------------------------------|
B|-7/10/13/15--7/10x13-------------------|
G|-7/10/13/15--7/10x13-------------------|
D|---------------------------------------|
A|---------------------------------------|
D|---------------------------------------|

that's it it's not to hard


Другие подборы этого исполнителя

Расскажи друзьям!




Привет, гитарист!

Пройди супер-курс по гитаре и порази всех своей игрой!

Забрать курс!
ВАМ ПОДАРКИ ОТ ПРОЕКТА
"ГИТАРНАЯ РЕВОЛЮЦИЯ"