Gitaristu.ru
Аккорды Табулатура Начинающим Мастер-класс Софт Видео
Новости Анонсы Гитары Гитаристы Статьи Аватарки Минусовки
Поиск



Популярные подборы




Настройка гитары






Главная > Аккорды > S > Silverchair

Аккорды
Silverchair
-
Freak (табулатура)

Не нашли аккорды к песне? Посмотрите на


Подбор прислал: gitaristu.ru



Date: Sat, 14 Jul 2001 02:54:28 -0400
From: sander p 
Subject: s/silverchair/freak.tab

Band: silverchair
Song: Freak
Tuning: Dropped-D
Tabbed By: $@nder

Intro
e|------------------------------|
B|------------------------------|
G|---3----3-3--3--3--3----------|
D|---2--0-2-2--2--2--2--0-0-0---|
A|---2--0-2-2--2--2--2--0-0-0---|
D|---2--0-2-2--2--2--2--0-0-0---|

Verse
|------------------------------|
|------------------------------|
|------------------------------|
|----2--0-2-2--2--2--2--0-0-0--|
|----2--0-2-2--2--2--2--0-0-0--|
|----2--0-2-2--2--2--2--0-0-0--|

Chorus
|--------------------------|-----------------------------|
|--------------------------|-----------------------------|
|--------------------------|-----------------------------|
|-0--3/4-4--0-0--3/4-4-4-4-|-0--3/4-4--0-0--3/4--4--4h6--|
|-0--3/4-4--0-0--3/4-4-4-4-|-0--3/4-4--0-0--3/4--4--4h6--|
|-0--3/4-4--0-0--3/4-4-4-4-|-0--3/4-4--0-0--3/4--4--4h6--|

If only I could be as cool as you
|-0-|
|-0-|
|-2-|
|-3-|
|-3-|
|-3-|

|-------------------------------|
|-------------------------------|
|-------------------------------|
|---2--0-2-2--2-2--2/3-3-3-0----|
|---2--0-2-2--2-2--2/3-3-3-0----|
|---2--0-2-2--2-2--2/3-3-3-0----|
As cool as you


|-------------------------------------------------------------|
|-------------------------------------------------------------|
|-------------------------------------------------------------|
|-------3-------5-----5---4---2---0--------3-------5----------|
|------3---3---3---3---------------------3---3---3------------|
|----3-------3-------0---0---0---0-----3-------3-----0-0--0-0-|
Body and soul, I'm a freak, I'm a freak


i don't really know
|-----------------------------------|
|-----------------------------------|
|-----------------------------------|
|-5--5-2-5-2-5-2-5-4--4-4-4-4-4-4-4-|
|-5--5-2-5-2-5-2-5-4--4-4-4-4-4-4-4-|
|-5--5-2-5-2-5-2-5-4--4-4-4-4-4-4-4-|

Body and soul, I'm a freak, I'm a freak
|--------------------------------------|
|--------------------------------------|
|-----------5-5------------------------|
|--3---3-3--5-5-0-0-0-0-0-0-0-0-0--0-0-|
|--3---3-3--3-3-0-0-0-0-0-0-0-0-0--0-0-|
|--3---3-3------0-0-0-0-0-0-0-0-0--0-0-|
       *********************************P.M


Solo
|------------------------------------------|
|-10-10-10-10-10-10-10-10-10-13-13-13-13-10|
|------------------------------------------|
|------------------------------------------|
|------------------------------------------|
|------------------------------------------|

|-------------------------------------------------------|
|-------------------------------------------------------|
|-11-11-11-11-11-11-11-11-11-11-11-11-11-11-11-11-11-11-|
|-------------------------------------------------------|
|-------------------------------------------------------|
|-------------------------------------------------------|

|------------------------------------------|
|-10-10-10-10-10-10-10-10-10-13-13-13-13-10|
|------------------------------------------|
|------------------------------------------|
|------------------------------------------|
|------------------------------------------|

|-------------------------------------------------------|
|-------------------------------------------------------|
|-11-11-11-11-11-11-11-11-11-11-11-11-11-11-11-11-11-11-|
|-------------------------------------------------------|
|-------------------------------------------------------|
|-------------------------------------------------------|


|-------------------------|
|-------------------------|
|--16--11--/14--11------|
|---------------------12-|
|-------------------------|
|-------------------------|

Any comments mailme @ i_ate_your_balls@hotmail.com


Другие подборы этого исполнителя

Расскажи друзьям!




Привет, гитарист!

Пройди супер-курс по гитаре и порази всех своей игрой!

Забрать курс!
ВАМ ПОДАРКИ ОТ ПРОЕКТА
"ГИТАРНАЯ РЕВОЛЮЦИЯ"