Gitaristu.ru
Аккорды Табулатура Начинающим Мастер-класс Софт Видео
Новости Анонсы Гитары Гитаристы Статьи Аватарки Минусовки
Поиск



Популярные подборы




Настройка гитары






Главная > Аккорды > S > Silverchair

Аккорды
Silverchair
-
I believe (аккорды)

Не нашли аккорды к песне? Посмотрите на


Подбор прислал: gitaristu.ru



Date: Sat, 14 Jul 2001 03:16:58 -0400
From: sander p 
Subject: s/silverchair/i_believe.crd

Band: silverchair
Song: I Believe/Fat Donuts
Tuning: As Intro for pure massacre It's played in dropped-D
But you can play it in standard too
Tabbed By: $@NDER

Main Riff
|-3p1-1p0h1-3p1p0-3p1-1p0h1-3------------|
|-3---3-----3-----3---3-----3------------|
|-2---2-----2-----2---2-----2------------|
|----------------------------------------|
|----------------------------------------|
|----------------------------------------|
Verse 2
|-3p1------------------------------------|
|-3--------------------------------------|
|-2--2-----------------------------------|
|----------------------------------------|
|----------------------------------------|
|----------------------------------------|


Другие подборы этого исполнителя

Расскажи друзьям!




Привет, гитарист!

Пройди супер-курс по гитаре и порази всех своей игрой!

Забрать курс!
ВАМ ПОДАРКИ ОТ ПРОЕКТА
"ГИТАРНАЯ РЕВОЛЮЦИЯ"