Gitaristu.ru
Аккорды Табулатура Начинающим Мастер-класс Софт Видео
Новости Анонсы Гитары Гитаристы Статьи Аватарки Минусовки
Поиск



Популярные подборы




Настройка гитары






Главная > Аккорды > S > Silverchair

Аккорды
Silverchair
-
Israels son (табулатура)

Не нашли аккорды к песне? Посмотрите на


Подбор прислал: gitaristu.ru



Date: Sun, 8 Jul 2001 04:40:43 -0400
From: sander p 
Subject: s/silverchair/israels_son.tab

Artist: silverchair
Song:   Israel's son
Album:  Frogstomp
Tuning: Dropped D(low E-String to D)
tabbed by:$@nder

intro during the bass you play
e|-----------------------------------|
B|-----------------------------------|
G|-----------------------------------|
D|--------------------------------3--|
A|-5-5-5-5----5-5-5-5---5-5-5-5---3--|
D|-0-0-0-0----0-0-0-0---0-0-0-0---3--|

             Palm mute

verse
e|--------------------|
B|--------------------|
G|--------------------|
D|--------------------|
A|-----3h5-3---3h5-5--|
D|-0-0-3h5---0-3h5----|
   * *       *
chorus
e|-----------------|
B|-----------------|
G|-----------------|
D|-0-0-3-5-0-2-3---|
A|-0-0-3-5-0-2-3---|
D|-0-0-3-5-0-2-3---|

after3x play

e|------------------|
B|------------------|
G|------------------|
D|-1-1-1-1/6-6-6-6--|
A|-1-1-1-1/6-6-6-6--|
D|-1-1-1-1/6-6-6-6--|

then go into the verse and then chorus againplay the whole chorus
2x then play some harmonics on the 7th and 12th fret
at the end of the quiet part play

e|--------|
B|--------|
G|--------|
D|-3-2-1--|
A|-3-2-1--|
D|-3-2-1--|

then go into the chorus
then play
e|--------------------|
B|--------------------|
G|--------------------|
D|------------------5-|
A|---------3h5p3--3-5-|
D|-0-0-3-5-3h5p3----5-|
   * *

for the Iam Iam Israel's son part let of the palm mute and play faster
that's it I hope you'll have fun playing this song cuz it's one of 
silverchair best
Comments i_ate_your_balls@hotmail.com


Другие подборы этого исполнителя

Расскажи друзьям!




Привет, гитарист!

Пройди супер-курс по гитаре и порази всех своей игрой!

Забрать курс!
ВАМ ПОДАРКИ ОТ ПРОЕКТА
"ГИТАРНАЯ РЕВОЛЮЦИЯ"