Gitaristu.ru
Аккорды Табулатура Начинающим Мастер-класс Софт Видео
Новости Анонсы Гитары Гитаристы Статьи Аватарки Минусовки
Поиск



Популярные подборы




Настройка гитары






Главная > Аккорды > S > Silverchair

Аккорды
Silverchair
-
Learn to hate (аккорды)

Не нашли аккорды к песне? Посмотрите на


Подбор прислал: gitaristu.ru



From: sander p 
From: robin@tweedie.wcape.school.za (Rob)
Date: Tue, 30 Oct 2001 05:39:35 +0200
Subject: s/silverchair/learn_to_hate.crd

===========================
SILVERCHAIR - Learn to Hate
===========================
From the Album Freak Show 
Tuning: Drop-D
Tabbed by Rob Tweedie (phorque@hotmail.com)
I got the basic idea for this tab from $ander's version.

Note: 
The intro and verse riffs should not be played too
loud but you can really bang out the other riffs.

Intro

e|----------------------------------------------------|
B|----------------------------------------------------|
G|----------10-10-10-10-12-12-12-12---------x-8-8-8-8-| (2x)
D|-x-x-x-x--10-10-10-10-12-12-12-12-8-7-7-7-x-8-8-8-8-|
A|-x-x-x-x--8--8--8--8--10-10-10-10-0-0-0-0-x-6-6-6-6-|
D|-x-x-x-x--8--8--8--8--10-10-10-10-0-0-0-0 x-6-6-6-6-|

Bridge 

e|--------------------------------------------|
B|--------------------------------------------|
G|-10-10-10-10-12-12-12-12---------8-8-8-8----| (2x)
D|-10-10-10-10-12-12-12-12-8-7-7-7-8-8-8-8----|
A|-8--8--8--8--10-10-10-10-0-0-0-0-6-6-6-6----|
D|-8--8--8--8--10-10-10-10-0-0-0-0-6-6-6-6----|

Verse 

e|--------------------------------------------|
B|--------------------------------------------|
G|-10-10-10-10-12-12-12-12---------8-8-8-8----| (4x)
D|-10-10-10-10-12-12-12-12-8-7-7-7-8-8-8-8----|
A|-8--8--8--8--10-10-10-10-0-0-0-0-6-6-6-6----|
D|-8--8--8--8--10-10-10-10-0-0-0-0-6-6-6-6----|

Chorus

e|-------------------------------------------------|
B|-------------------------------------------------|
G|-------------------------------11-11-11-11-11-11-| (4x)
D|-4-4-4-4-4-6-6-6-6-6-0-0-0-0-0-11-11-11-11-11-11-|
A|-4-4-4-4-4-6-6-6-6-6-0-0-0-0-0-9--9--9--9--9--9--|
D|-4-4-4-4-4-6-6-6-6-6-0-0-0-0-0-9--9--9--9--9--9--|

Finger picking (played during Verse 4)

e|----------------------------------------------------------|
B|----------------------------------------------------------|
G|----------------------------------------------------------|
D|--------10-------------12------------7-----------8--------|
A|-----8------8------10------10-----0-----0-----6-----6-----|
D|--8------------10--------------0-----------6--------------|

Outro

e|-------------------------------------------------|
B|-7-7-7-7-9-9-9-9-3-3-3-3-13-13-13-13-13-13-13----|
G|-6-6-6-6-8-8-8-8-2-2-2-2-12-12-12-12-12-12-12----| (4x)
D|-4-4-4-4-6-6-6-6-0-0-0-0-9--9--9--9--9--9--9-----|
A|-------------------------------------------------|
D|-------------------------------------------------|

End on

e|-----------|
B|-----------|
G|---10------| 
D|---10------|
A|---8-------|
D|---8-------|

The rythym is easy, so work it out yourself  I think the song is in 4/4 time if you
want to count along.

Order of Playing:

Intro
Bridge
Verse 1
Chorus
Verse 2
Bridge
Last two lines of Verse 1 (play verse riff 2x)
Chorus
Verse 3 (with two verse riffs before singing starts)
Chorus
Outro


Другие подборы этого исполнителя

Расскажи друзьям!




Привет, гитарист!

Пройди супер-курс по гитаре и порази всех своей игрой!

Забрать курс!
ВАМ ПОДАРКИ ОТ ПРОЕКТА
"ГИТАРНАЯ РЕВОЛЮЦИЯ"