Gitaristu.ru
Аккорды Табулатура Начинающим Мастер-класс Софт Видео
Новости Анонсы Гитары Гитаристы Статьи Аватарки Минусовки
Поиск



Популярные подборы




Настройка гитары






Главная > Аккорды > S > Silverchair

Аккорды
Silverchair
-
Leave me out (аккорды)

Не нашли аккорды к песне? Посмотрите на


Подбор прислал: gitaristu.ru



Date: Sat, 14 Jul 2001 02:56:33 -0400
From: sander p 
Subject: s/silverchair/leave_me_out.crd

Band: silverchair
Song: leave me out
Tuning: Dropped-D
Tabbed by:$@NDER

Intro
E|---------------------------------------|
B|---------------------------------------|
G|-3-3-3-3-3-3-3-3-5-5-5-5-5-5-5-5-------|
D|-3-3-3-3-3-3-3-3-5-5-5-5-5-5-5-5-------|
A|-1-1-1-1-1-1-1-1-3-3-3-3-3-3-3-3-------|
D|---------------------------------------|

Verse
E|---------------------------------------|
B|---------------------------------------|
G|--------------------7-6-5--------------|
D|-0-0-0---5-0-3------7-6-5--------------|
A|-0-0-0---5-0-3------5-4-3--------------|
D|-0-0-0-0-5-0-3-0-0---------------------|
       *         * *

Interlude
E|---------------------------------------|
B|---------------------------------------|
G|-5-5-5-5-5-5-5-5-----------------------|
D|-5-5-5-5-5-5-5-5-5-5-5-5-3-0-2h3-------|
A|-3-3-3-3-3-3-3-3-5-5-5-5-3-0-2h3-------|
D|-----------------5-5-5-5-3-0-2h3-------|

Chorus
E|---------------------------------------|
B|---------------------------------------|
G|---------------------------------------|
D|-7-7-7-7-x-4-0-0-3h5-5-5---------------|
A|-5-5-5-5-x-2-0-0-3h5-5-5---------------|
D|-------------0-0-3h5-5-5---------------|

Solo
E|-10-10 10h12-12b-12p10-10-9-8----------|
B|---------------------------------------|
G|---------------------------------------|
D|---------------------------------------|
A|---------------------------------------|
D|---------------------------------------|

Interlude
E|---------------------------------------------------------------|
B|---------------------------------------------------------------|
G|---------------------------------------------------------------|
D|-3h5-5-3h5-5-5-3h5-5-5-3h5-5-5-1h3-3-3-1h3-3-3-1h3-3-3-1h3-3-3-|
A|-3h5-5-3h5-5-5-3h5-5-5-3h5-5-5-1h3-3-3-1h3-3-3-1h3-3-3-1h3-3-3-|
D|-3h5-5-3h5-5-5-3h5-5-5-3h5-5-5-1h3-3-3-1h3-3-3-1h3-3-3-1h3-3-3-|

E|---------------------------------------|
B|---------------------------------------|
G|---------------------------------------|
D|-5h6-6-6-6/7-7-7-7-7-6-5---------------|
A|-5h6-6-6-6/7-7-7-7-7-6-5---------------|
D|-5h6-6-6-6/7-7-7-7-7-6-5---------------|

It's correct but maybe the solo is a bit of but just improvise


Другие подборы этого исполнителя

Расскажи друзьям!




Привет, гитарист!

Пройди супер-курс по гитаре и порази всех своей игрой!

Забрать курс!
ВАМ ПОДАРКИ ОТ ПРОЕКТА
"ГИТАРНАЯ РЕВОЛЮЦИЯ"