Gitaristu.ru
Аккорды Табулатура Начинающим Мастер-класс Софт Видео
Новости Анонсы Гитары Гитаристы Статьи Аватарки Минусовки
Поиск



Популярные подборы




Настройка гитары






Главная > Аккорды > S > Silverchair

Аккорды
Silverchair
-
Lie to me (аккорды)

Не нашли аккорды к песне? Посмотрите на


Подбор прислал: gitaristu.ru



Date: Sat, 14 Jul 2001 02:57:23 -0400
From: sander p 
Subject: s/silverchair/lie_to_me.crd

Band: silverchair
Song: Lie To Me
Tuning: Standard
Tabbed By: $@NDER

Main Riff
|-------------------------------------|
|-------------------------------------|
|-------------------------------------|
|---5-5-5-5-5-5-5-5-6-6-6-6-3-3-3-3---|
|---3-3-3-3-5-5-5-5-6-6-6-6-3-3-3-3---|
|---3-3-3-3-3-3-3-3-4-4-4-4-1-1-1-1---|

Interlude
|-----------|
|-----------|
|-3-x-x-x-x-|
|-----------|
|-----------|
|-----------|

Simple song


Другие подборы этого исполнителя

Расскажи друзьям!




Привет, гитарист!

Пройди супер-курс по гитаре и порази всех своей игрой!

Забрать курс!
ВАМ ПОДАРКИ ОТ ПРОЕКТА
"ГИТАРНАЯ РЕВОЛЮЦИЯ"