Gitaristu.ru
Аккорды Табулатура Начинающим Мастер-класс Софт Видео
Новости Анонсы Гитары Гитаристы Статьи Аватарки Минусовки
Поиск



Популярные подборы




Настройка гитары






Главная > Аккорды > S > Silverchair

Аккорды
Silverchair
-
Lie to me (табулатура)

Не нашли аккорды к песне? Посмотрите на


Подбор прислал: gitaristu.ru



#This file is the author's own work and represents their interpretation of the#
#song. You may only use this file for private study, scholarship, or research.#
#-----------------------------------------------------------------------------#
#-- File created with Instab - http://www.pconline.com/~smcarey/instab.html --#
#-----------------------------------------------------------------------------#

Author/Artist: silverchair
Title: Lie To Me
Album: Freak Show
Transcribed by: Zack Hill
Email: ppredator@hotmail.com

This song is mainly the same riff.  I see him do it live and it looks like he starts
higher at the beginning then goes to the different thing for the verses, but
it still sounds very close to the same.  I'm probably wrong, but hey, it's how I 
play it 
Written:  3/9/97
Key:  X  means pick scrapes.

***TUNING*** Dropped D

------------------------------------------------------------------------------
------------------------------------------------------------------------------
------------------------------------------------------------------------------
--5-5-5-5----5-5-5-5---6-6-6-6---3-3-3----------------------------------------
--5-5-5-5----5-5-5-5---6-6-6-6---3-3-3----------------------------------------
--5-5-5-5--0-5-5-5-5-0-6-6-6-6-0-3-3-3----------------------------------------
    *Opening riff*    2X then Go then 2X more                               

------------------------------------------------------------------------------
------------------------------------------------------------------------------
---5-5-5-5--5-5-5-5----6-6-6-6---3-3-3-3--------------------------------------
---5-5-5-5--5-5-5-5----6-6-6-6---3-3-3-3--------------------------------------
---3-3-3-3--3-3-3-3----4-4-4-4---1-1-1-1--------------------------------------
---3-3-3-3--3-3-3-3----4-4-4-4---1-1-1-1--------------------------------------
  *Verse riff.  I get confused watching him play it, but I think this is it*  

------------------------------------------------------------------------------
------------------------------------------------------------------------------
---------x---x--------------------------------------------------------------
--3b-----x---x--------------------------------------------------------------
--3b-----x---x------x------------------------------------------------------
----------------------x------------------------------------------------------
   *Interlude*               *go back to verse riff for lie to me *         

------------------------------------------------------------------------------
------------------------------------------------------------------------------
------------------------------------------------------------------------------
---3b-------------------------------------------------------------------------
---3b-------------------------------------------------------------------------
------------------------------------------------------------------------------
  *End note*       *Then unplug guitar to make that cracking sound*           


Другие подборы этого исполнителя

Расскажи друзьям!




Привет, гитарист!

Пройди супер-курс по гитаре и порази всех своей игрой!

Забрать курс!
ВАМ ПОДАРКИ ОТ ПРОЕКТА
"ГИТАРНАЯ РЕВОЛЮЦИЯ"