Gitaristu.ru
Аккорды Табулатура Начинающим Мастер-класс Софт Видео
Новости Анонсы Гитары Гитаристы Статьи Аватарки Минусовки
Поиск



Популярные подборы




Настройка гитары






Главная > Аккорды > S > Silverchair

Аккорды
Silverchair
-
Madman (табулатура) (1)

Не нашли аккорды к песне? Посмотрите на


Подбор прислал: gitaristu.ru



Date: Sat, 14 Jul 2001 02:58:09 -0400
From: sander p 
Subject: s/silverchair/madman.tab

Band: silverchair
Song: Madman
Tuning: Dropped-D
Tabbed By:$@NDER
Intro
|----------------------------------------|
|----------------------------------------|
|----------------------------------------|
|----------------------------------------|
|-5-----------5-5-5----------------------|
|-0-0-0-0-0-0-0-0-0----------------------|
    ********* PALM MUTE
|------------------------------------|
|------------------------------------|
|------------------------------------|
|------------------------------------|
|-2p0-2p0-2h3-0-3-0-2p0-2h3----------|
|-2p0-2p0-2h3-0-3-0-2p0-2h3----------|

For the next part Guitar 1 plays the intro and guitar 2 plays this
|-0---------------------------------------|
|-3---------------------------------------|
|-2---------------------------------------|
|-0---------------------------------------|
|-----------------------------------------|
|-----------------------------------------|
End with
|----------------------------------------|
|----------------------------------------|
|----------------------------------------|
|-2-0-2-0-2-3-0-3-0-3-0-2-3-0------------|
|-2-0-2-0-2-3-0-3-0-3-0-2-3-0------------|
|-2-0-2-0-2-3-0-3-0-3-0-2-3-0------------|

2nd Verse
|------------------------------------------------------------|
|------------------------------------------------------------|
|-5------5-----5-5---5--------0-------0-----0---0------------|
|-5------5-----5-5---5--------0-------0-----0---0------------|
|-7------7-----7-7---7--------0-------0-----0---0------------|
|--0-0-0---0-0-----0---0-0-0----0-0-0---0-0---0---0-0-0------|
   *****   ***     *   *****    *****   ***   *   ***** PALM MUTE

Solo
|----------------------------------------|
|----------------------------------------|
|----------------------------------------|
|----------------------------------------|
|-9-9-9-9-9-9-9-9-9-9-9-9-9-10-7---------|
|-0-0-0-0-0-0-0-0-0-0-0-0-0-0--0---------|

|--------------------------------------------------------|
|--------------------------------------------------------|
|--------------------------------------------------------|
|--------------------------------------------------------|
|-12-12-12-12-12-12-12-12-12-12-12-12-12-12-13-11--------|
|-0--0--0--0--0--0--0--0--0--0--0--0--0--0--0--0---------|

live Daniel Plays something completley different and I have no idea how to 
play it
If you know mail me @ i_ate_your_balls@hotmail.com


Другие подборы этого исполнителя

Расскажи друзьям!




Привет, гитарист!

Пройди супер-курс по гитаре и порази всех своей игрой!

Забрать курс!
ВАМ ПОДАРКИ ОТ ПРОЕКТА
"ГИТАРНАЯ РЕВОЛЮЦИЯ"