Gitaristu.ru
Аккорды Табулатура Начинающим Мастер-класс Софт Видео
Новости Анонсы Гитары Гитаристы Статьи Аватарки Минусовки
Поиск



Популярные подборы




Настройка гитары






Главная > Аккорды > S > Silverchair

Аккорды
Silverchair
-
Mind Reader bass (табулатура)

Не нашли аккорды к песне? Посмотрите на


Подбор прислал: gitaristu.ru
-------------------------------------------------------------------------------
			     MIND READER - Silverchair
-------------------------------------------------------------------------------

Tabbed By : Nic
e-mail: bogunbrothers@hotmail.com

Tuning: Standard


Verse 1:                     (Main riff)
G|-----------------------|----------------|
D|-----------------------|-----------5-0--|
A|-----------------------|--7--7-5--7-----|  this bar only x4
E|-1--1--11----1--1--11--|----------------|
  "laaaaaaaazy ways..."
                                    
G|-----------------------|----------------|
D|-----------------------|-----------5-0--|
A|-----------------------|--7--7-5--7-----|  this bar only x2
E|-1--1--11----1--1--11--|----------------|
  "ouuuuuuutta phase........woo!"

G|-----------------------|
D|-----------------------|
A|-----------------------|
E|-1--1--11----1--1--11--|
  "beeeeeetter days..."

(NOTE: those are all ones, not elevens)


Pre-Chorus:
G|-----------------------------------------------|
D|-0--0------------------------------------------|
A|-----2--02---0--0--------3--33--33-------------|
E|-----------------2--02---------------2--22--22-|

G|-----------------------------------------------|
D|-0--0------------------------------------------|
A|-----2--02---0--00--01-2-3--33--33-------------|
E|-------------------------------------2--22--22-|

(NOTE: those are all twos, not twenty-twos)


Verse 2: (same as verse 1, but main riff played first)
G|----------------|
D|-----------5-0--|
A|--7--7-5--7-----| x8
E|----------------|

G|-----------------------|----------------|
D|-----------------------|-----------5-0--|
A|-----------------------|--7--7-5--7-----|  this bar only x2
E|-1--1--11----1--1--11--|----------------|
  "craaaaaaazy ways.........wow!"

G|-----------------------|
D|-----------------------|
A|-----------------------|
E|-1--1--11----1--1--11--|
  "woooooooooooooooooo!"


Pre-Chorus


Chorus:
G|--------------------------|
D|--------------------------|
A|-----6-----6-----6--------| x3
E|--0-----0-----0-----6--1--|


Rest for 12 bars


Verse 3:
G|-----------------------|----------------|
D|-----------------------|-----------5-0--|
A|-----------------------|--7--7-5--7-----|  this bar only x2
E|-1--1--11----1--1--11--|----------------|
  "laaaaaaaazy ways.....ow!"

G|-----------------------|
D|-----------------------|
A|-----------------------|
E|-1--1--11----1--1--11--|
  "woooooooooooooooooo!"


Pre-Chorus


Chorus 2:
G|--------------------------|
D|--------------------------|
A|-----6-----6-----6--------| x3
E|--0-----0-----0-----6--1--|

G|-----------------------------------|
D|-----------------------------------|
A|-----6-----6-----6--------4--------|
E|--0-----0-----0-----6--1-----3--33-|


| /  slide up
| \  slide down
| h  hammer-on
| p  pull-off
| ~  vibrato
| +  harmonic
| x  Mute note
===============================================================================

Другие подборы этого исполнителя

Расскажи друзьям!




Привет, гитарист!

Пройди супер-курс по гитаре и порази всех своей игрой!

Забрать курс!
ВАМ ПОДАРКИ ОТ ПРОЕКТА
"ГИТАРНАЯ РЕВОЛЮЦИЯ"