Gitaristu.ru
Аккорды Табулатура Начинающим Мастер-класс Софт Видео
Новости Анонсы Гитары Гитаристы Статьи Аватарки Минусовки
Поиск



Популярные подборы




Настройка гитары






Главная > Аккорды > S > Silverchair

Аккорды
Silverchair
-
Miss you love (аккорды)

Не нашли аккорды к песне? Посмотрите на


Подбор прислал: gitaristu.ru



Date: Thu, 21 Jun 2001 23:37:18 -0400
From: NetBCorgan33@aol.com
Subject: s/silverchair/miss_you_love.crd

Title: Miss You Love
Artist: Silverchair (Daniel Johns)
Album: Neon Ballroom
Tabbed by: Chris McNac
Tuning: Standard

Intro/Verse:
Piano transcribed to guitar 
Clean electric

Millionaire say..
e-0--0-0-0--0--3--3-3-3--3--2--2-2-2--2--2-2-2--2-
B-1--1-1-1--1--3--3-3-3--3--3--3-3-3--3--3-3-3--3- 
G-0--0-0-0--0--0--0-0-0--0--2--2-2-2--2--2-2-2--2-  (x2)
D-2--2-2-2--2--0--0-0-0--0--0--0-0-0--0--0-0-0--0-   
A-3--3-3-3--3--2--2-2-2--2------------------------
E--------------3--3-3-3--3------------------------

Bridge:
(0:20-0:33)
I'm not- not sure- not too sure...
e-0-0--3-3--0-0--3-3--0-0-----------0-
B-1-1--3-3--1-1--3-3--1-1-----------0-
G-0-0--0-0--0-0--0-0--2-2-----------0-
D-2-2--0-0--2-2--0-0--2-2-----------2- (let ring)
A-3-3--2-2--3-3--2-2--0-0-----------2-
E------3-3-------3-3----------5-3-2-0-

(0:34-0:42)
And I miss you love..
e-0--3--2-
B-1--3--3-
G-2--0--2- (let ring) 
D-2--0--0-
A-0--2----
E----3----

Verse (x2):
Make room for the prey... 
(0:42-1:02)

Bridge: 
(1:02-1:14)

then..
(1:15-
Like the one that just passed..
e-0--0-
B-1--1-
G-2--2-(strum a few times) (Fig. 1)
D-2--2-
A-0--0-
E------

-1:26)
of all the people...
e-2--0--0-
B-3--1--1-
G-2--2--0-     (Fig. 2)
D-0--3--2- 
A-------3-
E---------

(1:27-1:35)
Remember today..
e-0-0-0--0-0--0-0-0--0-0
B-2-2-2--0-0--2-2-2--0-0
G-2-2-2--0-0--2-2-2--0-0    (Fig. 3)
D-2-2-2--2-2--2-2-2--2-2
A-0-0-0--2-2--0-0-0--2-2
E--------0-0---------0-0

(1:37-1:48)
And I miss you love..
e-2--0--0--2--0--0-
B-3--2--0--3--2--0-
G-2--2--1--2--2--1-       
D-0--2--2--0--2--2-(hold) (chorus)
A----0--2-----0--2-
E-------0--------0-

Distortion on
(1:49-2:10)
(same as verse, just with power chords)
e------------------------------------------------
B------------------------------------------------
G-5--5-5-5-5--------------7--7-7-7-7--7--7-7-7-7-
D-5--5-5-5-5--5--5-5-5-5--7--7-7-7-7--7--7-7-7-7- (x2)
A-3--3-3-3-3--5--5-5-5-5--5--5-5-5-5--5--5-5-5-5-
E-------------3--3-3-3-3-------------------------

Distortion off
(2:10-2:19)
I love the way you love...
Verse (x1)

Distortion on
(2:20-2:29)
And its just a fad...
e--------------------------------------------------------
B--------------------------------------------------------
G-5-5-x-x-5-5-x-x-----------------7-7-x-x-7-x-x-7-7-x-x-7
D-5-5-x-x-5-5-x-x-5-5-x-x-5-5-x-x-7-7-x-x-7-x-x-7-7-x-x-7
A-3-3-x-x-3-3-x-x-5-5-x-x-5-5-x-x-5-5-x-x-5-x-x-5-5-x-x-5
E-----------------3-3-x-x-3-3-x-x------------------------

Distortion off
Bridge:
(2:29-2:42)

Fig. 1:
(2:42-2:49)

Fig. 2:
(2:49-2:54)

Fig. 3:
(2:50-3:03)

Chorus:
(3:04-3:15)

Fig. 3:
(3:15-3:24)

Chorus:
(3:24-3:37)

Intro/Verse: (x2)
(3:38-3:55) End

If you have any questions or complaints, let me hear 'em. 

This is my first tab, so it may not be perfect, 

but I bet it's pretty close. Email me at...

NetBCorgan33@aol.com
--Chris M.


Другие подборы этого исполнителя

Расскажи друзьям!




Привет, гитарист!

Пройди супер-курс по гитаре и порази всех своей игрой!

Забрать курс!
ВАМ ПОДАРКИ ОТ ПРОЕКТА
"ГИТАРНАЯ РЕВОЛЮЦИЯ"