Gitaristu.ru
Аккорды Табулатура Начинающим Мастер-класс Софт Видео
Новости Анонсы Гитары Гитаристы Статьи Аватарки Минусовки
Поиск



Популярные подборы




Настройка гитары






Главная > Аккорды > S > Silverchair

Аккорды
Silverchair
-
New race (аккорды)

Не нашли аккорды к песне? Посмотрите на


Подбор прислал: gitaristu.ru



Date: Sat, 14 Jul 2001 02:58:58 -0400
From: sander p 
Subject: s/silverchair/new_race.crd

Band: silverchair
Song: New Race
Tuning: Standard
Tabbed By: $@NDER
A Cover by Radio Bird man
Intro
e|-------3-3b2---------3b2-------0---------|
B|-------------3-----------3-----2---------|
G|-----2---------2---0----------------4--2-|
D|---0-------------------------2------4--2-|
A|---------------------------0--------2--0-|
E|-----------------3-----------------------|
Verse
|----------------------|
|----------------------|
|---7--7-7-7---5-------|
|---7--7-7-7-x-5---5---|
|---5--5-5-5-x-3-x-5---|
|------------------3---|
Chorus
|-----------------------------------|
|-----------------------------------|
|---7-----5-----2-x-x-2-x-2----4--2-|
|---7--3--5--5--2-x-x-2-x-2----4--2-|
|---5--3--3--5--0-x-x-0-x-0----2--0-|
|---5--1--3--3----------------------|
For the 3rd Verse just play The 3rd string 3rd Fret
I don't have any idea about the solo If any one knows post it


Другие подборы этого исполнителя

Расскажи друзьям!




Привет, гитарист!

Пройди супер-курс по гитаре и порази всех своей игрой!

Забрать курс!
ВАМ ПОДАРКИ ОТ ПРОЕКТА
"ГИТАРНАЯ РЕВОЛЮЦИЯ"