Gitaristu.ru
Аккорды Табулатура Начинающим Мастер-класс Софт Видео
Новости Анонсы Гитары Гитаристы Статьи Аватарки Минусовки
Поиск



Популярные подборы




Настройка гитары






Главная > Аккорды > S > Silverchair

Аккорды
Silverchair
-
No association (аккорды)

Не нашли аккорды к песне? Посмотрите на


Подбор прислал: gitaristu.ru



From: sander p 
Subject: s/silverchair/no_association.crd
Date: Sun, 12 Aug 2001 13:09:27 +0000

Band: silverchair
Song: No Association
Tuning: Drooped-D
Tabbed By: $@NDER


Intro(Play Backwards)
e|-----------10---------|
B|-------9------9---9---|
G|-----7---7------7-----|
D|---7------------------|
A|----------------------|
D|----------------------|
Chorus
|------------------------------------------------------------|
|------------------------------------------------------------|
|------------------------------------------------------------|
|-0-2-2-0-4-3-0-6-5-0-8-7-0-13--0-2-2-0-4-3-0-6-5-0-8-7-0-11-|
|-0-2-2-0-4-3-0-6-5-0-8-7-0-11--0-2-2-0-4-3-0-6-5-0-8-7-0-11-|
|-0-2-2-0-4-3-0-6-5-0-8-7-0-11--0-2-2-0-4-3-0-6-5-0-8-7-0-11-|
Verse Palm Mute
|----------------------|
|----------------------|
|----------------------|
|-0-2-2--0-2-2-0-2-3-3-|
|-0-2-2--0-2-2-0-2-3-3-|
|-0-2-2--0-2-2-0-2-3-3-|

Breakdown
|---------------------|-----------------------|
|---------------------|-----------------------|
|---------------------|-----------------------|
|---0-2-0-2-0-2-0-2---|-0-2-0-2-0-2-0-2-x-x-x-|
|---0-2-0-2-0-2-0-2---|-0-2-0-2-0-2-0-2-x-x-x-|
|---0-2-0-2-0-2-0-2---|-0-2-0-2-0-2-0-2-x-x-x-|


|------------------------------------------|
|------------------------------------------|
|------------------------------------------|
|-0-2-0-2-0-2-0-2-0-8--0-2-0-2-0-2-0-2-0-10|
|-0-2-0-2-0-2-0-2-0-6--0-2-0-2-0-2-0-2-0-8-|
|-0-2-0-2-0-2-0-2-0-6--0-2-0-2-0-2-0-2-0-8-|

Waterfalls Part
|-----------------------------|
|-----------------------------|
|-----------------------------|
|-------2-------2-------3-----|
|-----------------2---3---3---|
|---0-2-----0-2-----3---------|

For the outro Firet play the chorus riff 2 times clean Then replace it with 
this

|--------------------------------|
|--------------------------------|
|--------------------------------|
|-0-2-2-0-2-3-3--1-1-1-1/4-4-4-4-|
|-0-2-2-0-2-3-3--1-1-1-1/4-4-4-4-|
|-0-2-2-0-2-3-3--1-1-1-1/4-4-4-4-|

After that just play the verse


Другие подборы этого исполнителя

Расскажи друзьям!




Привет, гитарист!

Пройди супер-курс по гитаре и порази всех своей игрой!

Забрать курс!
ВАМ ПОДАРКИ ОТ ПРОЕКТА
"ГИТАРНАЯ РЕВОЛЮЦИЯ"