Gitaristu.ru
Аккорды Табулатура Начинающим Мастер-класс Софт Видео
Новости Анонсы Гитары Гитаристы Статьи Аватарки Минусовки
Поиск



Популярные подборы




Настройка гитары






Главная > Аккорды > S > Silverchair

Аккорды
Silverchair
-
Nobody came (табулатура)

Не нашли аккорды к песне? Посмотрите на


Подбор прислал: gitaristu.ru



Date: Sat, 14 Jul 2001 03:01:00 -0400
From: sander p 
Subject: s/silverchair/nobody_came.tab

Song-Nobody Came
Band-silverchair
TUNING (DADABE) from low to high
tune the low E to a D, and the G up to an A
Tabbed by: $@NDER
Verse
E|------------------------------|----------------0-------|
B|----1-----3-----1-----1-------|----1-----3-----1--0----|
A|-0--0-----0-----0-----0--0----|-0--0-----0--0--0--0--0-|
D|-2--2--2--2--2--2--2--2--2--2-|-2--2--2--2--2--2--2--2-|
A|-0-----0-----0-----0-----0--0-|-0-----0-----0--------0-|
D|------------------------------|------------------------|

Chorus
E|-0--------------0-------------------------------------------|
B|-0--------------0--------------------1-----3-----1-----1--0-|
A|-0--0---0-------0--0--------------0--0-----0-----0-----0--0-|
D|-3----3------3-------3---3-3-3-0--2--2--2--2--2--2--2--2--2-|
A|-3---------3-----------3---3-3-0--0-----0-----0-----0-------|
D|-3----------------------------------------------------------|

E|-0-------------0------------------------------------|
B|-0-------------0------------------1-----1h3---1-----|
A|-0--0---0------0--0---------0--0--0-----0-----0-----|
D|-3----3---3-----------3-3-3-0--2--2--2--2---2-2-2-2-|
A|-3----------3-------3---3-3-0--0-----0------0---0-0-|
D|-3--------------------------0-----------------------|

Interlude
(play each chord 16 times each)
E|-0---0-|
B|-4---5-|
A|-0---0-|
D|-------|
A|-------|
D|-------|

Different Interlude
GTR 1            GTR 2
E|-----------|    |-----------|
B|-----------|    |--------9--|
A|-----------|    |--5--5-----|
D|--------6--|    |--0--0-----|
A|--5--5-----|    |-----------|
D|--0--0-----|    |-----------|
To see what I can lose again, for being the victim

E|--------------|
B|--------------|
A|-----------8--|
D|--7--------8--|
A|--7--------6--|
D|--7-----------|
  (16x)    (16x)
Ohhhhhhhh
Solo w/Wah Wah
   ~~~~~~~~~~~~~~~~~~~~~~~~~~~~~~~~~~~~~~~~~~~~~~~~~~~~~~~~~
E|-----------------------------------------------------------|
B|-----------------------------------------------------------|
A|----7-8--7-8--10-8-7--/12-7--/12--7----------------------|
D|-7------------------------------------8--7-8--10--8--7--2-|
A|-----------------------------------------------------------|
D|-----------------------------------------------------------|
   ~~~~~~~~~~~~~~~~~~~~~~~~~~~~~~~~~~~~~~~~~~~~~~~~~~~~~~~~~~~~
E|--------------------------------------------------------------|
B|--------------------------------------------------------------|
A|--------------------------------------/3--4--5--6--7--8--9/12-|
D|-/5--7--2-/5--3--(3)--2--0--2--------------------------------|
A|--------------------------------3--2--------------------------|
D|--------------------------------------------------------------|
   ~~~~~~~~~~~~~~~~~~~~~~~~~~~~~~~~~~~~~~~~~~~~~~~~
E|--------------------------------------------------|
B|--------------------------------------------------|
A|-12^--12------7--8--7--8----10--8--7------7--8--7-|
D|----------7-------------------------7------------|
A|--------------------------------------------------|
D|--------------------------------------------------|

E|-----------------------------------------------------------|
B|-----------------------------------------------------------|
A|-8-7-8--10--10-10-8--12-12-12-12^(12)-12^--12--10--12^--12-|
D|-----------------------------------------------------------|
A|-----------------------------------------------------------|
D|-----------------------------------------------------------|

E|-----------------------------------------------------------|
B|-----------------------------------------------------------|
A|-12^--12-12^--12-12^--12-12^--12^--8-8--6^--8--8^^--8^^(8)-|
D|-----------------------------------------------------------|
A|-----------------------------------------------------------|
D|-----------------------------------------------------------|
   ~~~~~~~~~~
E|------------------------------------------|
B|------------------------------------------|
A|-7--8--7--8--7--7-8--83----2----0--0^(0)-|
D|------------------------------------------|
A|------------------------------------------|
D|------------------------------------------|
                                      (bend string behind nut)
for the outro play the verse and when the sound becomes softer the first 
part of the chorus
this is really the best song from Freakshow and I aws shocked that I didn't 
find a tab in this
archive so here it is


Другие подборы этого исполнителя

Расскажи друзьям!




Привет, гитарист!

Пройди супер-курс по гитаре и порази всех своей игрой!

Забрать курс!
ВАМ ПОДАРКИ ОТ ПРОЕКТА
"ГИТАРНАЯ РЕВОЛЮЦИЯ"