Gitaristu.ru
Аккорды Табулатура Начинающим Мастер-класс Софт Видео
Новости Анонсы Гитары Гитаристы Статьи Аватарки Минусовки
Поиск



Популярные подборы




Настройка гитары






Главная > Аккорды > S > Silverchair

Аккорды
Silverchair
-
Paint pastel princess (табулатура)

Не нашли аккорды к песне? Посмотрите на


Подбор прислал: gitaristu.ru



From: sander p 
Subject: s/silverchair/paint_pastel_princess.tab
Date: Sun, 12 Aug 2001 13:08:13 +0000

Band: silverchair
Song: Paint Pastel Princess
Tuning: Db-Ab-Db-Ab-Db-Db low to high
from standard tuning, from low to high:
* tune down the low E string to Db (3 half-steps down)
* tune down the A string to Ab (1 half-step down)
* tune down the D string to Db (1 half-step down)
* tune up the G string to Ab (1 half-step up)
* tune up the B string to Db (2 half-steps up)
* tune down the high E string to Db (3 half-steps down), so that the two 
strings are the same
Tabbed by: $@NDER

Intro
Db|---------------------------------|-------------------------0-------|
Db|-----4-----5-----7-------7-------|-----4-----5-----7-----5-----5---|
Ab|---5----/7----/9-----9-----9---9-|---5----/7----/9-----4-----4---4-|
Db|-0-----0-----0-----0---0-----0---|-0-----0-----0-----0-------------|
Ab|---------------------------------|---------------------------------|
Db|---------------------------------|---------------------------------|

|---------------------------------------------|
|-----5-----5--------5-----5--------5-----5---|
|---4-----4---4----4-----4---4----4-----4---4-|
|-0--------------0--------------0-------------|
|---------------------------------------------|
|---------------------------------------------|

Verse
|-0--0-0-0--0-0-0-0--0-0-0--0--0-0--0-0-0-0--0-0|
|-4--4-4-4--4-4-4-4--4-4-4--4--4-4--4-4-4-4--4-4|
|-5--5-5-5--5-5-5-5--5-5-5--5--5-5--5-5-5-5--5-5|
|-0--0-0-0--0-0-0-0--0-0-0--0--0-0--0-0-0-0--0-0|
|-0--0-0-0--0-0-0-0--0-0-0--0--0-0--0-0-0-0--0-0|
|-0--0-0-0--0-0-0-0--0-0-0--0--0-0--0-0-0-0--0-0|

|--0---0--0---0-0--0-0-0-0-0-0-0-|
|--0---0--0---0-0--0-0-0-0-0-0-0-|
|--8---8--8---8-7--7-7-7-7-7-7-7-|
|-10--10-10--10-9--9-9-9-9-9-9-9-|
|--8---8--8---8-7--7-7-7-7-7-7-7-|
|--------------------------------|

Chorus
|----------------------|
|----------------------|
|----------------------|
|----------------------|
|---2-/4--5------------|
|------------0--2--4---|

Bridge
|---0-x-0-x-0--0-0--0--0-x-0-x-0--0-0--0---|
|---4-x-7-x-9--9-9--9--9-x-7-x-5--5-5--5---|
|---5---5---7--7-7--7--7---5---4--4-4--4---|
|---0---0---0--0-0--0--0---0---0--0-0--0---|
|------------------------------------------|
|------------------------------------------|

After the bridge play
|-0--0--0-0--0--0-0-0-|-0--0--0-0--0--0-0-0-|
|-6--6--4-6--6--4-6-7-|-6--6--4-6--6--4-6-4-|
|-4--4--4-4--4--4-4-4-|-4--4--4-4--4--4-4-4-|
|-0--0--0-0--0--0-0-0-|-0--0--0-0--0--0-0-0-|
|---------------------|---------------------|
|---------------------|---------------------|

|-0--0--0-0--0--0-0-0-|-0--0---------------|
|-6--6--4-6--6--4-6-7-|-6--6---------------|
|-4--4--4-4--4--4-4-4-|-4--4---------------|
|-0--0--0-0--0--0-0-0-|-0--0--0-3-5-7--7-0-|
|---------------------|-------0-3-5-7--7-0-|
|---------------------|-------0-3-5-7--7-0-|

|----------------7-6-4--2-4-6-4-4-------------|
|---------------------------------------------|
|---------------------------------------------|
|---3-5-7-7-0-----------------------3-5-7-3-0-|
|---3-5-7-7-0-----------------------3-5-7-3-0-|
|---3-5-7-7-0-----------------------3-5-7-3-0-|
                 |violin arranged|
                 |  for guitar   |
|--------------------------------------------------------|
|--------------------------------------------------------|
|--------------------------------------------------------|
|---0-0-0--0-0-0--0-0-3-6-4-1-0----0-0-0--0-0-0--3-6-4-1-|
|---0-0-0--0-0-0--0-0-3-6-4-1-0----0-0-0--0-0-0--3-6-4-1-|
|---0-0-0--0-0-0--0-0-3-6-4-1-0----0-0-0--0-0-0--3-6-4-1-|
    ***    ***    ***                 ***    ***         *:palm mute
After playing the intro play this
||----0-x-0-x-0------|-0-x-0-x-0--0-0--0----||
||----4-x-7-x-9------|-9-x-7-x-5--5-5--5----||
||-o--5---5---7------|-7---5---4--4-4--4--o-||
||-o--0---0---0--0-0-|-0---0---0--0-0--0--o-||
||---------------0-0-|----------------------||
||---------------0-0-|----------------------||


Другие подборы этого исполнителя

Расскажи друзьям!




Привет, гитарист!

Пройди супер-курс по гитаре и порази всех своей игрой!

Забрать курс!
ВАМ ПОДАРКИ ОТ ПРОЕКТА
"ГИТАРНАЯ РЕВОЛЮЦИЯ"