Gitaristu.ru
Аккорды Табулатура Начинающим Мастер-класс Софт Видео
Новости Анонсы Гитары Гитаристы Статьи Аватарки Минусовки
Поиск



Популярные подборы




Настройка гитары






Главная > Аккорды > S > Silverchair

Аккорды
Silverchair
-
Pop song for us rejects (аккорды)

Не нашли аккорды к песне? Посмотрите на


Подбор прислал: gitaristu.ru



Date: Sat, 14 Jul 2001 03:02:04 -0400
From: sander p 
Subject: s/silverchair/pop_song_for_us_rejects.crd

Band: silverchair
Song: Pop Song for Us Rejects
Tuning: Standard
Tabbed By: $@NDER

Verse
e|----0-x-0-0-x-0-x-x-x------------3-x-3-3-x-3----------3-3-|
B|----3-x-3-3-x-3-x-3-x-3-3/5-5-0--3-x-3-3-x-3--3-3-3-3-3-3-|
G|-0--0-x-0-0-x-0-x-0-x-0-0-0-0-0--0-x-0-0-x-0--2-2-2-2-0-0-|
D|-0--2-x-2-2-x-2-x-2-x-2-2/4-4-0--0-x-0-0-x-0--0-0-0-0-0-0-|
A|-0--3-x-3-3-x-3-x-3-x-3-3/5-5----x-x-x-x-x-x--3-3-3-3-2-2-|
E|---------------------------------3-x-3-3-x-3--------------|

|---3-3-3-3-3-3-3-3-3-3-3-3-3-3-3-3-3---|
|---3-3-3-3-3-3-3-3-3-3-3-3-3-3-3-3-3---|
|---0-0-0-0-0-0-0-0-2-2-2-2-2-2-2-2-2---|
|---0-0-0-0-0-0-0-0-0-0-0-0-0-0-0-0-0---|
|---2-2-2-2-2-2-2-2-0-0-0-0-0-0-0-0-0---|
|---3-3-3-3-3-3-3-3-2-2-2-2-2-2-2-2-2---|


Chorus                                  End With
|------------------------------------|-6-6-6-6-6-6-6-|
|------------------------------------|-6-6-6-6-6-6-6-|
|------6-6--6-6-6-6------------------|-8-8-8-8-8-8-8-|
|-2/---6-6--6-6-6-6--5-5-5-5-5-5-----|-8-8-8-8-8-8-8-|
|-2/---4-4--4-4-4-4--5-5-5-5-5-5-0---|-6-------------|
|-2/---4-4--4-4-4-4--3-3-3-3-3-3-0---|-6-------------|
Bridge
|-----------------------------------------------------------|
|-----------------------------------------------------------|
|---8-8--8-8-8-8--6-6-6-6-6-6-6---------x-x-x---------------|
|---8-8--8-8-8-8--6-6-6-6-6-6-6-5-5-5-3-x-x-x-5-5-5-5-6-6---|
|---6-6--6-6-6-6--4-4-4-4-4-4-4-5-5-5-3-x-x-x-5-5-5-5-6-6---|
|---6-6--6-6-6-6--4-4-4-4-4-4-4-3-3-3-1-x-x-x-3-3-3-3-4-4---|


Другие подборы этого исполнителя

Расскажи друзьям!




Привет, гитарист!

Пройди супер-курс по гитаре и порази всех своей игрой!

Забрать курс!
ВАМ ПОДАРКИ ОТ ПРОЕКТА
"ГИТАРНАЯ РЕВОЛЮЦИЯ"