Gitaristu.ru
Аккорды Табулатура Начинающим Мастер-класс Софт Видео
Новости Анонсы Гитары Гитаристы Статьи Аватарки Минусовки
Поиск



Популярные подборы




Настройка гитары






Главная > Аккорды > S > Silverchair

Аккорды
Silverchair
-
Pop song for us rejects (табулатура)

Не нашли аккорды к песне? Посмотрите на


Подбор прислал: gitaristu.ru



Date: Tue, 14 Apr 1998 19:32:32 -0300
From: Raphael Cunha 
Subject: TAB: Pop Song For Us Rejects by Silverchair

Author/Artist: Silverchair
Title: Pop Song For Us Rejects
Album: Freak Show
Transcribed by: Raphael Cunha
Email: arcunha@tba.com.br

INTRO and Verses:

---0x-0-0-0-0-0-0-0-0-3x-3-3-3-3-3-0-0-0-|
---3x-3-3-3-3-3-5-5-5-3x-3-3-3-3-3-3-3-3-|
---0x-0-0-0-0-0-0-0-0-0x-0-0-0-0-0-0-0-0-|
---2x-2-2-2-2-2-4-4-4-0x-0-0-0-0-0-2-2-2-|
---3x-3-3-3-3-3-5-5-5-2x-2-2-2-2-2-2-2-2-|
----------------------3x-3-3-3-3-3-0-0-0-|
     C9    /     D9  /   G    /     Em7                                       


Pre-Chorus:

---3-3-3-3-3-0-0-0-0-0---|
---3-3-3-3-3-5-5-5-5-5---|
---0-0-0-0-0-0-0-0-0-0---|
---0-0-0-0-0-4-4-4-4-4---|
---2-2-2-2-2-5-5-5-5-5---|
---3-3-3-3-3-------------|
      G         D9  (4x)                                                      


Chorus:

------------------------------------------------------------------------
------------------------------------------------------------------------
---6-6-6-6-6-6-6-6-6-6-7-7-7-7-7-6-6-6-6-6-6-6-6-6----------8-8v--------
---6-6-6-6-6-6-6-6-6-6-7-7-7-7-7-6-6-6-6-6-6-6-6-6-5-5-5-5--8-8v--------
---4-4-4-4-4-4-4-4-4-4-5-5-5-5-5-4-4-4-4-4-4-4-4-4-5-5-5-5--6-6v--------
---------------------------------------------------3-3-3-3--------------
     Now I gotta dump youuuu...   Continue my life too...                     


--------------------------------------------------------|
--------------------------------------------------------|
---8-8-8-8-8-6-6-6-6-6-6-6------------------------------|
---8-8-8-8-8-6-6-6-6-6-6-6-5-5-5-5-3xxx-5-5-5-5-6-6-6-6-|
---6-6-6-6-6-4-4-4-4-4-4-4-5-5-5-5-3xxx-5-5-5-5-6-6-6-6-|
---------------------------3-3-3-3-1xxx-3-3-3-3-4-4-4-4-|
     You died yesterday...                                                    




that's all 
arcunha@tba.com.br


Другие подборы этого исполнителя

Расскажи друзьям!




Привет, гитарист!

Пройди супер-курс по гитаре и порази всех своей игрой!

Забрать курс!
ВАМ ПОДАРКИ ОТ ПРОЕКТА
"ГИТАРНАЯ РЕВОЛЮЦИЯ"