Gitaristu.ru
Аккорды Табулатура Начинающим Мастер-класс Софт Видео
Новости Анонсы Гитары Гитаристы Статьи Аватарки Минусовки
Поиск



Популярные подборы




Настройка гитары






Главная > Аккорды > S > Silverchair

Аккорды
Silverchair
-
Punk song 2 (аккорды)

Не нашли аккорды к песне? Посмотрите на


Подбор прислал: gitaristu.ru



Date: Sat, 14 Jul 2001 03:03:54 -0400
From: sander p 
Subject: s/silverchair/punk_song_2.crd

Band: silverchair
Song: Punk Song#2
Tuning: standard
Tabbed By: $@NDER

Intro
e|-----------------------|-------------------------|---------|
B|-----------------------|-------------------------|-x-x-x-x-|
G|-------------5-5-5-5-5-|---------------5-5-5-5-5-|-x-x-x-x-|
D|-------------5-5-5-5-5-|---------------5-5-5-5-5-|-x-x-x-x-|
A|---5-4-------3-3-3-3-3-|-----5-4-------3-3-3-3-3-|-x-x-x-x-|
E|-0-----5-3-0-----------|-0-0-----5-3-0-----------|---------|

Verse
|-----------------------------------------------|
|-----------------------------------------------|
|---2-2-2-2-x-4-4-4-4-4-x-7-7-7-7-x-9-9-9-9-9---|
|---2-2-2-2-x-4-4-4-4-4-x-7-7-7-7-x-9-9-9-9-9---|
|---0-0-0-0-x-2-2-2-2-2-x-5-5-5-5-x-7-7-7-7-7---|
|-----------------------------------------------|

Chorus
|--------------------------------|
|--------------------------------|
|-----------x----9---8---7---5---|
|---7-7-7-7-x----9---8---7---5---|
|---7-7-7-7-x----7---6---5---3---|
|---5-5-5-5----------------------|

Bridge
|-----------------------------------------------|
|-----------------------------------------------|
|---4-4-4-4-x-------------3-3-3-3-x-7-7-7-7-7---|
|---4-4-4-4-x-5-5-5-5-5-x-3-3-3-3-x-7-7-7-7-7---|
|---2-2-2-2-x-5-5-5-5-5-x-1-1-1-1-x-5-5-5-5-5---|
|-------------3-3-3-3-3-x-----------------------|

After playing the intro part Replace it with this
|-----------------------------|
|-----------------------------|
|-------7-6-------5-5-5-5-5---|
|-------7-6-7-5---5-5-5-5-5---|
|-------5-4-7-5---3-3-3-3-3---|
|---0-0-----5-3-0-------------|

That's it It's just a matter of aranging the parts


Другие подборы этого исполнителя

Расскажи друзьям!




Привет, гитарист!

Пройди супер-курс по гитаре и порази всех своей игрой!

Забрать курс!
ВАМ ПОДАРКИ ОТ ПРОЕКТА
"ГИТАРНАЯ РЕВОЛЮЦИЯ"