Gitaristu.ru
Аккорды Табулатура Начинающим Мастер-класс Софт Видео
Новости Анонсы Гитары Гитаристы Статьи Аватарки Минусовки
Поиск



Популярные подборы




Настройка гитары






Главная > Аккорды > S > Sin Bandera

Аккорды
Sin Bandera
-
Contigo (табулатура)

Не нашли аккорды к песне? Посмотрите на


Подбор прислал: gitaristu.ru
Intro:

Guitarra 1
E|---------0-----2-2-----------0-----1-3-------------------4-------4--|
B|---0-2-3-----3---2-----0-2-3-----3---1-----0-2-3-5-----4-5-----5----|
G|-2---------2-----2---2---------2-----2---2-----------5-----4-------4|
D|---------0-------0-----------0-------0-------------6---------6------|
A|-------------------------------------------------4------------------|
E|--------------------------------------------------------------------|


Guitarra 1
E|------------------3---2h3p2-----------2----------1-------1----------|
B|-2-----3--------------------3-2---2---2------2---1---1---1----------|
G|-------2------------------------2---2------2---2-2-2---2-2----------|
D|-----4----4--5--4-------------0-------0--0-------0-------0----------|
A|---4---2------------------------------------------------------------|
E|-2------------------------------------------------------------------|

Guitarra 2
E|---------------------------------0-5-7-7/9--10-12-13-12-10----------|
B|--------------------------------2--------------------------13-12-10-|
G|-------------------------------2------------------------------------|
D|------------------------------0-------------------------------------|


Dmaj7                       Dm7
Para t

Другие подборы этого исполнителя

Расскажи друзьям!




Привет, гитарист!

Пройди супер-курс по гитаре и порази всех своей игрой!

Забрать курс!
ВАМ ПОДАРКИ ОТ ПРОЕКТА
"ГИТАРНАЯ РЕВОЛЮЦИЯ"