Gitaristu.ru
Аккорды Табулатура Начинающим Мастер-класс Софт Видео
Новости Анонсы Гитары Гитаристы Статьи Аватарки Минусовки
Поиск



Популярные подборы




Настройка гитары






Главная > Аккорды > S > Sin Bandera

Аккорды
Sin Bandera
-
Mientes Tam Bien (табулатура)

Не нашли аккорды к песне? Посмотрите на


Подбор прислал: gitaristu.ru
esta cancion esta genial y ps tambien me gusta pokillo (x eso la sake jaja ) bueno bay se cuidan 



:::Acordes:::
       eBGDAE               eBGDAE
G    : 330023        Am/G : 012203
D/F# : 232002        C    : 01023x
Am   : 01220x        Dsus2: 0320xx
D    : 2320xx        A    : 02220x
Cadd9: 33023x        Em   : 000220
Em7/B: 03022x        Em7  : 030220

******************************************************
Intro [0:0] - Guitarra1 (Leonel)
            - Guitarra2 (Noel)
          G                 G                D/F#              D/F#
e|-----------------|-----------------|---------------0-|-----------------|
B|-------3-------3-|-------3-------3-|-------3---------|-------3-------3-|
G|-----0-------2---|-----0-------2---|-----2-------2---|-----2-------2---|
D|---0-------0-----|---0-------0-----|---0-------0-----|---0-------0-----|
A|-----------------|-----------------|-----------------|-----------------|
E|-3-------3-------|-3-------3-------|-2-------2-------|-2-------2-------|
<--Guitarra1
-->Guitarra2
e|-------3---------|-------3---------|-------3---------|-------0---------|
B|---------------3-|---------------3-|---------------3-|---------------3-|
G|-----2-------2---|-----2-------2---|-----2-------2---|-----2-------2---|
D|---0-------0-----|---0-------0-----|---0-------0-----|---0-------0-----|
A|-----------------|-----------------|-----------------|-----------------|
E|-3-------3-------|-3-------3-------|-2-------2-------|-2-------2-------|

          G                 G                D/F#              D/F#
e|-----------------|-----------------|---------------0-|-----------------|
B|-------3-------3-|-------3-------3-|-------3---------|-------3---------|
G|-----0-------2---|-----0-------2---|-----2-------2---|-----2-----------|
D|---0-------0-----|---0-------0-----|---0-------0-----|---0-------------|
A|-----------------|-----------------|-----------------|-----------------|
E|-3-------3-------|-3-------3-------|-2-------2-------|-2---------------|
<--Guitarra1
-->Guitarra2
e|-------3---------|-------3---------|-------3---------|-----------------|
B|---------------3-|---------------3-|---------------3-|-------3-------3-|
G|-----2-------2---|-----2-------2---|-----2-------2---|-----2-------2---|
D|---0-------0-----|---0-------0-----|---0-------0-----|---0-------0-----|
A|-----------------|-----------------|-----------------|-----------------|
E|-3-------3-------|-3-------3-------|-2-------2-------|-2-------2-------|

******************************************************
Fill1 [0:07] - Guitarra3

e|-----------------|-----------------|-----------------|-----------------|
B|---------12----13|-12--------------|---------12----13|-12--------------|
G|------12-12------|-12-12-----------|------12-12------|-12-12-----------|
D|---12-12-------12|----12-12--------|---12-12-------12|----12-12--------|
A|---14------------|-------14--------|---14------------|-------14--------|
E|-----------------|-----------------|-----------------|-----------------|

******************************************************
Estrofa1 [0:14] - Guitarra1
                - Guitarra2
         Am                 D                 G               D/F#
e|-------0---------|-------0---------|-------3---------|-----------------|
B|---------------1-|-----3---------3-|---------------3-|-------3-------3-|
G|-----2-------2---|---2---------2---|-----0-------0---|-----2-------2---|
D|---2-------2-----|-0---------0-----|---0-------0-----|---0-------0-----|
A|-0-------0-------|-----------------|-----------------|-----------------|
E|-----------------|---------2-------|-3-------3-------|-2-------2-------|
<--Guitarra1
-->Guitarra2
e|-------0---------|-------2---------|-----------------|-----------------|
B|---------------1-|-----3---------3-|-------3-------3-|-------3-------3-|
G|-----2-------2---|---2---------2---|-----0-------0---|-----2-------2---|
D|---2-------2-----|-0---------0-----|---0-------0-----|---0-------0-----|
A|-0-------0-------|-----------------|-----------------|-----------------|
E|-----------------|---------2-------|-3-------3-------|-2-------2-------|

       Cadd9                D                 G               D/F#
e|-----------------|-------2---------|-----------------|-----------------|
B|-------3---------|-----3---------3-|-------3-------3-|-------3-------3-|
G|-----0-------0---|---2---------2---|-----0-------2---|-----0-------2---|
D|---2-------2-----|-0---------0-----|---0-------0-----|---0-------0-----|
A|-3-------3-------|-----------------|-----------------|-----------------|
E|-----------------|---------2-------|-3-------3-------|-2-------2-------|
<--Guitarra1
-->Guitarra2
e|-------0---------|-------2---------|-------3---------|-----------------|
B|---------------3-|-----3---------3-|-----3-------3---|-------3-------3-|
G|-----0-------0---|---2---------2---|---0-------------|-----2-------2---|
D|---2-------2-----|-0-------0-0-----|-----------0-----|---0-------0-----|
A|-3-------3-------|-----------------|-----------------|-----------------|
E|-----------------|-----------------|-3-------3-------|-2-------2-------|

        Em                  D               Cadd9             Em7/B
e|-------0---------|-------2---------|-------0---------|-------0---------|
B|-----------------|-----3-----------|-------------3---|---------------3-|
G|-----0-----------|---2-------------|-----0-----0---0-|-----0-------0---|
D|---2-----2-------|-0-------0-------|---2-------------|---2-------2-----|
A|-----------------|-----------------|-3-------3-------|-2---------------|
E|-0---------------|-----------------|-----------------|-----------------|
<--Guitarra1
-->Guitarra2
e|-------0---------|-------2---------|-------0---------|-------0---------|
B|-----0-----------|-----3---------3-|-----3---------1-|-----3---------3-|
G|---0-------------|---2---------2---|---0---------0---|---0---------0---|
D|-----------------|-0---------0-----|-----------2-----|-----------0-----|
A|-----------------|-----------------|-3-------3-------|-2-------2-------|
E|-0-------0-------|-----------------|-----------------|-----------------|

         Am               Am/G            Dsus2 - D
e|-------0---------|-----------------|-------0-------2-|-------3p2--------|
B|---------------1-|-------1-------1-|-----3-------3---|------------------|
G|-----2-------2---|-----0-------0---|---2-------2-----|------------------|
D|---2-------2-----|---2-------2-----|---------0-------|-0----------------|
A|-0-------0-------|-----------------|-----------------|------------------|
E|-----------------|-3-------3-------|-2---------------|------------------|
<--Guitarra1
-->Guitarra2
e|-------0---------|-----------------|---------0-----2-|-----------0------|
B|-----1---------1-|-------1-------1-|-------3---------|------3-----------|
G|---2---------2---|-----0-------0---|-----2-------2---|------------------|
D|-----------2-----|---2-------2-----|---0------0------|------------------|
A|-0-------0-------|-----------------|-----------------|------------------|
E|-----------------|-3-------3-------|-2---------------|------------------|

Am                    D                G    D/F#
   Que te quedar

Другие подборы этого исполнителя

Расскажи друзьям!




Привет, гитарист!

Пройди супер-курс по гитаре и порази всех своей игрой!

Забрать курс!
ВАМ ПОДАРКИ ОТ ПРОЕКТА
"ГИТАРНАЯ РЕВОЛЮЦИЯ"