Gitaristu.ru
Аккорды Табулатура Начинающим Мастер-класс Софт Видео
Новости Анонсы Гитары Гитаристы Статьи Аватарки Минусовки
Поиск



Популярные подборы




Настройка гитары






Главная > Аккорды > S > Sin Bandera

Аккорды
Sin Bandera
-
Mientes Tambien (табулатура)

Не нашли аккорды к песне? Посмотрите на


Подбор прислал: gitaristu.ru
INTRO:

GTR 1: Arpegio
            G                    G                 Dadd9/F#               Em7        
e|----------3---------|----------3---------|----------3---------|----------0---------|
B|--------3------3----|--------3------3----|--------3------3----|--------3------3----|
G|-----0-------0---0--|-----0-------0---0--|-----2-------2---2--|-----0-------0---0--|
D|--------------------|--------------------|--------------------|--------------------|
A|--------------------|--------------------|--------------------|--------------------|
E|--3-----------------|--3-----------------|--2-----------------|--0-----------------|

(Ahora entran las 2 guitarras juntas)
GTR 1: 
            G                    G                 Dadd9/F#               Em7        
e|----------3---------|----------3---------|----------3---------|----------0---------|
B|--------3------3----|--------3------3----|--------3------3----|--------3------3----|\  
G|-----0-------0---0--|-----0-------0---0--|-----2-------2---2--|-----0-------0---0--| \
D|--------------------|--------------------|--------------------|--------------------|  \
A|--------------------|--------------------|--------------------|--------------------|   \   
E|--3-----------------|--3-----------------|--2-----------------|--0-----------------|    \    
GTR 2:                                                                                     Aqui se tocan las
e|---------3----------|---5-----3----------|---------3----------|---5-----3----------|    / dos Guitarras al
B|---------3----------|---5-----3-----3----|---------3----------|---5-----3-----3----|   /    mismo tiempo.
G|------0-------------|---------------4----|------0-------------|---------------4----|  / 
D|--------------------|--------------------|--------------------|--------------------| / 
A|--------------------|--------------------|--------------------|--------------------|/ 
E|--3-----------------|--------------------|--3-----------------|--------------------|
                               


VERSO:

GTR1: Arpegio

          Cadd9                 D                     G                 Dadd9/F#
e|----------3---------|----------2---------|----------3---------|----------3---------|
B|--------3------3----|--------3------3----|--------3------3----|--------3------3----|
G|-----0-------0---0--|-----2-------2---2--|-----0-------0---0--|-----2-------2---2--|
D|--------------------|--0-----------------|--------------------|--------------------|
A|--3-----------------|--------------------|--------------------|--------------------|
E|--------------------|--------------------|--3-----------------|--2-----------------|
    Que te quedaras con  migo una vida      entera

          Cadd9                 D                     G                 Dadd9/F#
e|----------3---------|----------2---------|----------3---------|----------3---------|
B|--------3------3----|--------3------3----|--------3------3----|--------3------3----|
G|-----0-------0---0--|-----2-------2---2--|-----0-------0---0--|-----2-------2---2--|
D|--------------------|--0-----------------|--------------------|--------------------|
A|--3-----------------|--------------------|--------------------|--------------------|
E|--------------------|--------------------|--3-----------------|--2-----------------|
   Que con tigo adi

Другие подборы этого исполнителя

Расскажи друзьям!




Привет, гитарист!

Пройди супер-курс по гитаре и порази всех своей игрой!

Забрать курс!
ВАМ ПОДАРКИ ОТ ПРОЕКТА
"ГИТАРНАЯ РЕВОЛЮЦИЯ"