Gitaristu.ru
Аккорды Табулатура Начинающим Мастер-класс Софт Видео
Новости Анонсы Гитары Гитаристы Статьи Аватарки Минусовки
Поиск



Популярные подборы




Настройка гитары






Главная > Аккорды > S > Sin Bandera

Аккорды
Sin Bandera
-
Si Tu No Estas Aqui (табулатура)

Не нашли аккорды к песне? Посмотрите на


Подбор прислал: gitaristu.ru
intro

E----------------------1--------------------------------------|
A-----3-------2---------------------3------2---------3--------|
D-----------------2-2----3----2-2----------------------3------|
G--------0----------------2------------0----------------5-----|
B-1-3---1-----3---3-0--1---1--1-3-----1----3--3-----------6---|
e-----0-----3---3-------------------0----3---3---7-8-5--------|


  No   quiero estar sin ti       si tu no estas aqui
   C     Em     F                G
E-------0-------1----------------3----------------------------|
A-3-----------------------------------------------------------|
D--2------2-------3---------------0-----0---------------------|
G---0------0-------2-----2---------0---0----------------------|
B----1------0-------1-------1-------3-3-----------------------|
e--------------------------1---------3------------------------|

   me sobra el aire
   C
E----------------------------------------|
A-3---------------------0-2-3------------|
D--2-------------------------------------|
G---0-----------------0------------------|
B----1------------3-3-1------------------|
e-----------------3-3--------------------|

luego puedes seguir con la misma secuencia o simplemente seguir con lo siguiente
C   Em          F
no quiero estar asi
    G                       C
si tu no estas la gente se hace nadie


   Em                F
si tu no estas aqui no se
      G              C
que diablos hago amandote
    Em                F
si tu no estas aqui sabras
      G
que Dios no va a entender porque te vas

C     Em           F
no quiero estar sin ti
    G                    C
si tu no estas aqui me falta el sue

Другие подборы этого исполнителя

Расскажи друзьям!




Привет, гитарист!

Пройди супер-курс по гитаре и порази всех своей игрой!

Забрать курс!
ВАМ ПОДАРКИ ОТ ПРОЕКТА
"ГИТАРНАЯ РЕВОЛЮЦИЯ"