Gitaristu.ru
Аккорды Табулатура Начинающим Мастер-класс Софт Видео
Новости Анонсы Гитары Гитаристы Статьи Аватарки Минусовки
Поиск



Популярные подборы




Настройка гитары






Главная > Аккорды > S > Sin Bandera

Аккорды
Sin Bandera
-
Ves (табулатура)

Не нашли аккорды к песне? Посмотрите на


Подбор прислал: gitaristu.ru
riff

E |---------------------------------------------------------------------|
B |-----9-----9---------9------9---------9------9--------9------9-------|
G |--------11--------------11---------------11--------------11----------|
D |-----------------9---------------------------------------------------|
A |--7-------------------------------7----------------6-----------------|
E |--0------------------------------------------------------------------|

E |-----4-----4-------4-------4-----------------------------------------|
B |--------7------5-------4-----------4-------4-------4---5-------------|
G |-------------------------------6-------4-------6---------------------|
D |---------------------------------------------------------------------|
A |--4------------------------------------------------------------------|
E |---------------------------------------------------------------------|

E |-------5-------5-------5-------5---------------------------2---------|
B |-----------4-------2-------0--------2------------------2-------------|
G |----------------------------------------2----------2-----------------|
D |-------------------------------------------4----4--------------------|
A |----------------------------------------------4----------------------|
E |---2--------------------------------2--------------------------------|

E |---------------0--------------------------------2--------------------|
B |---1---------------1-------------------4--------4--------------------|
G |-------2---------------2---------------2-----2-----------------------|
D |-----------2-----------------------4---------------------------------|
A |---0----------------------0-----2------------------------------------|
E |---------------------------------------------------------------------|


De aqu

Другие подборы этого исполнителя

Расскажи друзьям!




Привет, гитарист!

Пройди супер-курс по гитаре и порази всех своей игрой!

Забрать курс!
ВАМ ПОДАРКИ ОТ ПРОЕКТА
"ГИТАРНАЯ РЕВОЛЮЦИЯ"