Gitaristu.ru
Аккорды Табулатура Начинающим Мастер-класс Софт Видео
Новости Анонсы Гитары Гитаристы Статьи Аватарки Минусовки
Поиск



Популярные подборы




Настройка гитары






Главная > Аккорды > S > Sinch

Аккорды
Sinch
-
Tabula Rasa bass (табулатура)

Не нашли аккорды к песне? Посмотрите на


Подбор прислал: gitaristu.ru
Song:      Tabula Rasa
Band:      Sinch
Album:     Sinch
Tabbed by: benit13 (benit13@hotmail.com)
Tuning:    Standard


Intro:
G||--------------------------------||
D||---------2------2---------------||
A||-0-0---0---0--0---0---0-0-1-1-1-||
E||--------------------------------||x8

Verse: Play intro riff x12


Chorus:
G||------------------------------||
D||------------------------------||
A||---0--0-0---0-0-3--3-2--2-3---||
E||------------------------------||x8

Then play intro riff x14 and the chorus riff x8


Interlude:
G|------------------------------|
D|------------------------------|
A|--0-0--0-0--------0-0--0-0----|
E|------------------------------|

G|------------------------------|
D|------------------------------|
A|--0-0--0-0--/5----0-0--0-0-/3-|
E|------------------------------|

G|------------------------------|---|
D|------------------------------|---|
A|--0-0--0-0--/5----0-0--0-0-/3-|---|
E|------------------------------|---|

G||------------------------------|------------------------------||
D||------------------------------|------------------------------||
A||-0-5--0-5--5-5-0-5--0-5-5-5-5-|--------------3---3-3-5-5-5-5-||
E||------------------------------|-1--1-1--1-1------------------||x4

G||------------------------------||
D||------------------------.-.-.-||
A||------------------------0-0-0-||
E||------------------------------||x3

Then play chorus x8 and the intro riff x8 to finish off.

Другие подборы этого исполнителя

Расскажи друзьям!




Привет, гитарист!

Пройди супер-курс по гитаре и порази всех своей игрой!

Забрать курс!
ВАМ ПОДАРКИ ОТ ПРОЕКТА
"ГИТАРНАЯ РЕВОЛЮЦИЯ"