Gitaristu.ru
Аккорды Табулатура Начинающим Мастер-класс Софт Видео
Новости Анонсы Гитары Гитаристы Статьи Аватарки Минусовки
Поиск



Популярные подборы




Настройка гитары






Главная > Аккорды > S > Sinergy

Аккорды
Sinergy
-
Razor Blade Salvation (табулатура)

Не нашли аккорды к песне? Посмотрите на


Подбор прислал: gitaristu.ru
-------------------------------------------------------------------------------
                        RAZOR BLADE SALVATION - Sinergy
-------------------------------------------------------------------------------
Tabbed by: Łukasz Wydra
Email: headmaster@gazeta.pl

Tuning: EADGBE

My first tab :) I'm playing guitar for 19 months but I think that tab is quite
correct ;)


2:39-3:12
e|-_-------------------------------------------------------------------------|
B|---------------------------------------------------------------------------|
G|---------------------------------------------------------------------------|
D|--\9-9-11-12-11h12p11-9-11----11-12\14-12-11-12~---------------------------|
A|---------------------------12----------------------------------------------|
E|---------------------------------------------------------------------------|

e|---------------------------------------------------------------------------|
B|---------------------------------------------------------------------------|
G|-----------------------------\16-14h16p14-12-11----------------------------|
D|-12-14\16-14h16p14/12-14-14~--------------------14-12----------------------|
A|---------------------------------------------------------------------------|
E|---------------------------------------------------------------------------| x2

e|---------------------------------------------------------------------------|
B|---------------------------------------------------------------------------|
G|---------------------------------------------------------------------------|
D|---------------------------------------------------------------------------|
A|--\4-4-6-7-6h7p6/4-6---6-7\9-7-6-7~----------------------------------------|
E|---------------------7-----------------------------------------------------|

e|---------------------------------------------------------------------------|
B|---------------------------------------------------------------------------|
G|---------------------------------------------------------------------------|
D|-----------------------\11-9h11p9-7-6--------------------------------------|
A|--7-9/11-9h11p9/7-9-9~----------------9-7-(6~)-----------------------------|
E|---------------------------------------------------------------------------| x2


3:25-3:58
e|---------------------------------------------------------------------------|
B|--\17-16-17----------------------------------------------------------------|
G|------------13~-13-16\18-16-13h16-13~--------------------------------------|
D|---------------------------------------------------------------------------|
A|---------------------------------------------------------------------------|
E|---------------------------------------------------------------------------|

e|--------------------------------------------19----19----19-----------------|
B|-----17----16----14----16-16\->-17--\17~-19^----19^--19^---19^~------------|
G|--13----13----13----13-----------------------------------------------------|
D|---------------------------------------------------------------------------|
A|---------------------------------------------------------------------------|
E|---------------------------------------------------------------------------|

e|------------------------------------------12-14-16-17^-14-14^-14^-14^-14^--|
B|---------14--------------14-----------\14----------------------------------|
G|--\13-13----13-16^-16-13----13-16-13---------------------------------------|
D|---------------------------------------------------------------------------|
A|---------------------------------------------------------------------------|
E|---------------------------------------------------------------------------|


(that part was too fast for me, so I must improvise, but the effect is good)

e|--12h14p12h16-12h14p12h16-12h14p12h16-16p14p12-12h14p12h16--12h14p12h16----|
B|---------------------------------------------------------------------------|
G|---------------------------------------------------------------------------|
D|---------------------------------------------------------------------------|
A|---------------------------------------------------------------------------|
E|---------------------------------------------------------------------------|

e|--14^-14^-14^-14^-14^-14^-14\----------------------------------------------|
B|---------------------------------------------------------------------------|
G|---------------------------------------------------------------------------|
D|---------------------------------------------------------------------------|
A|---------------------------------------------------------------------------|
E|---------------------------------------------------------------------------|

Enjoy! :)


| /  slide up
| \  slide down
| h  hammer-on
| p  pull-off
| ~  vibrato
===============================================================================

Другие подборы этого исполнителя

Расскажи друзьям!




Привет, гитарист!

Пройди супер-курс по гитаре и порази всех своей игрой!

Забрать курс!
ВАМ ПОДАРКИ ОТ ПРОЕКТА
"ГИТАРНАЯ РЕВОЛЮЦИЯ"