Gitaristu.ru
Аккорды Табулатура Начинающим Мастер-класс Софт Видео
Новости Анонсы Гитары Гитаристы Статьи Аватарки Минусовки
Поиск



Популярные подборы




Настройка гитары






Главная > Аккорды > S > Sportfreunde Stiller

Аккорды
Sportfreunde Stiller
-
Pogo In Togo bass (табулатура)

Не нашли аккорды к песне? Посмотрите на


Подбор прислал: gitaristu.ru
Sportfreunde Stiller
Pogo In Togo from album You Have To Win Zweikampf
Tab by: FLIP


intro:

G------------------------|
D--------2---------------|
A--0-2-0---2-------------|
E------------------------|


Verse:
G--------------------------------------|
D--------------------------------------|
A----------------------------------5---|
E-55-555-555-555-5--33-333-333-5-3---5-|


"Samba in Uganda...."
G-------------------------------|
D-------------------------------|
A-------------------------------|
E-8-8-8-8-8-7-7-6-6-55555555555-|


Chorus ("pogo in togo..."):
G--------------------------------|
D--------------------------------|
A--5555555-444-333-22------------|
E---------------------55555555---|

Interlude:
G---------------------------------------------------|
D--2-2--------2-2----------3-3--------3-3-----------|
A------0-3-0------0-33-0-------0-3-0------0-33-0----|
E---------------------------------------------------|

That's it. Awesome band. Awesome bassist.

Das ist alle. Sporties sind ausgezeichnet.

Mail me if want to ask something

flip.flea2@vp.pl

Другие подборы этого исполнителя

Расскажи друзьям!




Привет, гитарист!

Пройди супер-курс по гитаре и порази всех своей игрой!

Забрать курс!
ВАМ ПОДАРКИ ОТ ПРОЕКТА
"ГИТАРНАЯ РЕВОЛЮЦИЯ"