Gitaristu.ru
Аккорды Табулатура Начинающим Мастер-класс Софт Видео
Новости Анонсы Гитары Гитаристы Статьи Аватарки Минусовки
Поиск



Популярные подборы




Настройка гитары






Главная > Аккорды > S > Spur 58

Аккорды
Spur 58
-
Ready To Love (табулатура)

Не нашли аккорды к песне? Посмотрите на


Подбор прислал: gitaristu.ru
-------------------------------------------------------------------------------
                             Ready to Love- Spur 58
-------------------------------------------------------------------------------
Tabbed by:somekid
Email:blahblah@whoru.net

Tuning:standard

intro/verses:

e|-----------------------------------|
B|-----------------------------------|
G|-9--9-3-7-0--9-3-7-0--9-3-7-5-3-0--|
D|-----------------------------------|
A|-----------------------------------|
E|-----------------------------------|

chorus:repeat if repeated.

e|-x--x--x--x--x--x--x--x--x--x--x--x--x--x--x--x--x--x--x--x--x--x--x--x---------------------------|
B|-x--x--x--x--x--x--x--x--x--x--x--x--x--x--x--x--x--x--x--x--x--x--x--x---------------------------|
G|-9--9--9--9--9--9--9--9--10-10-10-10-10-10-10-10-x--x--x--x--x--x--x--x--12-12-12-12-12-12-12-12--|
D|-x--x--x--x--x--x--x--x--x--x--x--x--x--x--x--x--10-10-10-10-10-10-10-10--------------------------|
A|-7--7--7--7--7--7--7--7--8--8--8--8--8--8--8--8--x--x--x--x--x--x--x--x--10-10-10-10-10-10-10-10--|
E|-x--x--x--x--x--x--x--x--x--x--x--x--x--x--x--x--8--8--8--8--8--8--8--8---------------------------|
chorus lick:

e|1-0h1-0h1-1-0h1-0h1-1-0h1-0h1-1-0h1-0----|
B|--------------------------------------3--|
G|-----------------------------------------|
D|-----------------------------------------|
A|-----------------------------------------|
E|-----------------------------------------|

Bridge:

e|-0-1-5-3--0-1-5-3-5-3------------------------------------------------------------------|
B|---------------------------------------------------------------------------------------|
G|---------------------------------------------------------------------------------------|
D|---------------------------------------------------------------------------------------|
A|---------------------------------------------------------------------------------------|
E|---------------------------------------------------------------------------------------|

Bridge lead:

e|-0-0h1---1-3--0-0h1---1-3--|
B|---------------------------|
G|-------5------------5------|
D|---------------------------|
A|---------------------------|
E|---------------------------|

e|---------------------------------------------------------------------------|
B|---------------------------------------------------------------------------|
G|---------------------------------------------------------------------------|
D|---------------------------------------------------------------------------|
A|---------------------------------------------------------------------------|
E|---------------------------------------------------------------------------|

e|---------------------------------------------------------------------------|
B|---------------------------------------------------------------------------|
G|---------------------------------------------------------------------------|
D|---------------------------------------------------------------------------|
A|---------------------------------------------------------------------------|
E|---------------------------------------------------------------------------|

e|---------------------------------------------------------------------------|
B|---------------------------------------------------------------------------|
G|---------------------------------------------------------------------------|
D|---------------------------------------------------------------------------|
A|---------------------------------------------------------------------------|
E|---------------------------------------------------------------------------|

| /  slide up
| \  slide down
| h  hammer-on
| p  pull-off
| ~  vibrato
| +  harmonic
| x  Mute note
Расскажи друзьям!




Привет, гитарист!

Пройди супер-курс по гитаре и порази всех своей игрой!

Забрать курс!
ВАМ ПОДАРКИ ОТ ПРОЕКТА
"ГИТАРНАЯ РЕВОЛЮЦИЯ"